background
Alice Cooper Tablature: You Want It, You Got It

You Want It, You Got It

Words and music by
From the album Special Forces (1981)
Transcribed by Eric Neveu (ericn@progression.net)

RIFF A
REPEAT TWICE
E-----------------------------------------------------------------------------
B-----------------------------------------------------------------------------
G-----------------------------------------------------------------------------
D---0---0-----8---0---0------7--0-----0-----6--0--0-------5---0---0---3----5--
A-----------------------------------------------------------------------------
E-----------------------------------------------------------------------------
    PM  PM        PM  PM        PM    PM       PM PM


RIFF B
REPEAT TWICE
E-----------------------------------------------------------------------------
B-----------------------------------------------------------------------------
G-----------------------------------------------------------------------------
D-----------------------------------------------------------------------------
A----0---0-----8----0---0----7----0----0----6---0---0----5---0---0---3---5----
E-----------------------------------------------------------------------------
     PM  PM         PM  PM        PM   PM       PM  PM


RIFF C

E-----------------------------------------------------------------------------
B-----------------------------------------------------------------------------
G-------2----2---2---5---5--5----2---2---2-----7----5-----7-------------------
D-------2----2---2---5---5--5----2---2---2-----7----5-----7-------------------
A-------0----0---0---3---3--3----0---0---0-----5----3-----5-------------------
E-----------------------------------------------------------------------------


RIFF D

E------------------------------
B------------------------------
G------------------------------
D--------9---7----9------------
A------------------------------
E------------------------------


RIFF E

E------------------------------
B------------------------------
G------------------------------
D------------------------------
A-------9---7---9--------------
E------------------------------


INTRO

YOU WANT MONEY.......

RIFF A   TWICE

YOU WANT LOTS OF LOVE

RIFF B   TWICE

YOU WANT IT YOU GOT IT

RIFF C   TWICE


RIFF D     AFTER   RIFF   A       REPEAT TWICE

RIFF E     AFTER   RIFF   B       REPEAT TWICE