background
Alice Cooper Tablature: You Drive Me Nervous

You Drive Me Nervous

Words and music by Alice Cooper, Michael Bruce, Bob Ezrin
From the album Killer (1972)
Transcription by Dean ( Mad Axeman )
Email: born2loseout2lunch@yahoo.co.uk

 Tuning:Standard

I think I've got all the guitars (excl bass).
Crank it up for feedback!




    ^ v ^
e|-------------------------------------|
B|--3-3-3------------------------------|
G|--2-2-2------------------------------|
D|--0-0-0------------------------------|
A|---------------------------------12\-|
E|-------------------------------------|





        ^ v  ^ v  ^ v                        ^ v  ^ v  ^ v
e|-------------------------------------|-------------------------------------|
B|--6---x-x--x-x--x-x--------------6---|--6---x-x--x-x--x-0---10101010101010-|
G|--7---x-x--x-x--x-x-------7b9----5---|--7---x-x--x-x--x-0---12 slowbend 14-|
D|--7---x-x--x-x--x-x--5--------7------|--7---x-x--x-x--x-0------------------|
A|--5------------------5---------------|--5----------------------------------|
E|---------------------3---------------|-------------------------------------|
 |  
e|-------------------------------------|-------------------------------------|
B|-------------------------------------|-------------------------------------|
G|-------------------------------------|-------------------------------------|
D|-------------------------------------|-------------------------------------|
A|--5---------5--------------------3---|--5---------5--------------------3---|
E|-----5-4\3----5-4-3-3-3-1-3--1-3-----|-----5-4\3----5-4-3-3-3-1-3--1-3-----|

                                                                     Yeah...


        ^ v  ^ v  ^ v                        ^ v  ^ v  ^ v
e|-------------------------------------|-------------------------------------|
B|--6---x-x--x-x--x-x--0---12-12-12----|--6---x-x--x-x--x-x--0---12-12-12----|
G|--7---x-x--x-x--x-x--0---12-12-12----|--7---x-x--x-x--x-x--0---12-12-12----|
D|--7---x-x--x-x--x-x--0---12-12-12-0--|--7---x-x--x-x--x-x--0---12-12-12-0--|
A|--5----------------------------------|--5----------------------------------|
E|-------------------------------------|-------------------------------------|
 |
e|-------------------------------------|-------------------------------------|
B|-------------------------------------|-------------------------------------|
G|-------------------------------------|-------------------------------------|
D|-------------------------------------|-------------------------------------|
A|--5---------5--------------------3---|--5---------5--------------------3---|
E|-----5-4\3----5-4-3-3-3-1-3--1-3-----|-----5-4\3----5-4-3-3-3-1-3--1-3-----|
 
  ..you  seem   so     civilized, your mommys  tryin  to  run your life, your


        ^ v  ^ v  ^ v                        
e|-------------------------------------|--------------------------------------|
B|--6---x-x--x-x--x-0------------------|-15b16r15---13--13--------------------|
G|--7---x-x--x-x--x-0------------------|--------------14----14--12------------|
D|--7---x-x--x-x--x-0------------------|----------------------------15-12-15\-|
A|--5----------------------------------|--------------------------------------|
E|-------------------------------------|--------------------------------------|
 |                    (slowbend)                         ^ v ^
e|-------------------------------------|--5------5--5----5-5-5-----5--5-------|
B|-------------------------------------|--5------5--5----5-5-5-----5--5-------|
G|---------------------5-5-5b6r5-------|--6------6--6----6-6-6-----6--6-------|
D|-------------------------------7-5---|--7------7--7----7-7-7-----7--7-------|
A|--5---------5----------------------7-|--7------7--7----7-7-7-----7--7-------|
E|-----5-4\3----5-4-3------------------|--5------5--5----5-5-5-----5--5-------|

   daddys tryin to pick your wife,  oh no.                              yeah.. 


 

                             
 
        ^ v  ^ v  ^ v                        ^ v  ^ v  ^ v                     
e|-------------------------------------|-------------------------------------|    
B|--6---x-x--x-x--x-x--------------6---|--6---x-x--x-x--x-0---10101010101010-|    
G|--7---x-x--x-x--x-x-------7b9----5---|--7---x-x--x-x--x-0---12 slowbend 14-|
D|--7---x-x--x-x--x-x--5--------7------|--7---x-x--x-x--x-0------------------|
A|--5------------------5---------------|--5----------------------------------|
E|---------------------3---------------|-------------------------------------|
 |  
e|-------------------------------------|-------------------------------------|
B|-------------------------------------|-------------------------------------|
G|-------------------------------------|-------------------------------------|
D|-------------------------------------|-------------------------------------|
A|--5---------5--------------------3---|--5---------5--------------------3---|
E|-----5-4\3----5-4-3-3-3-1-3--1-3-----|-----5-4\3----5-4-3-3-3-1-3--1-3-----|

  you run around, with all that hair, they just don't like the rags you wear,


        ^ v  ^ v  ^ v                        
e|-------------------------------------|--15b16r-15-13--15--------------------|
B|--6---x-x--x-x--x-0------------------|--------------15---15b16r13-----------|
G|--7---x-x--x-x--x-0------------------|----------------------------14-12-14--|
D|--7---x-x--x-x--x-0------------------|--------------------------------------|
A|--5----------------------------------|--------------------------------------|
E|-------------------------------------|--------------------------------------|
 |                    (slowbend)                         ^ v ^
e|-------------------------------------|--5------5--5----5-5-5-----5--5-------|
B|-------------------------------------|--5------5--5----5-5-5-----5--5-------|
G|---------------------5-5-5b6r5-------|--6------6--6----6-6-6-----6--6-------|
D|-------------------------------7-5---|--7------7--7----7-7-7-----7--7-------|
A|--5---------5----------------------7-|--7------7--7----7-7-7-----7--7-------|
E|-----5-4\3----5-4-3------------------|--5------5--5----5-5-5-----5--5-------|
                                       |
                                       |--------------------------------------|
                                       |--15b16r15--13--13--------------------|
                                       |--------------14----14--12------------|
                                       |----------------------------15-12-15\-|
                                       |--------------------------------------|
                                       |--------------------------------------|

  you say I'm gonna pack up my stuff, I'm gonna run away.          and then you





  
  (slow bend and hold for feedback)
e|-------------------------------------|-------------------------------------|
B|-------------------------------------|-------------------------------------|
G|-------------------------------------|--5---------3----5-------------7-----|
D|--5-b--7-----------------------------|--5----5----3----5----5--4--3--7-----|
A|-------------------------------------|--3----5----1----3----5--4--3--5-----|
E|-------------------------------------|-------3--------------3--2--1--------|
  
   say,                    you drive me  nervous  nervous,          and then I


e|-------------------------------------|-------------------------------------|
B|-------------------------------------|-------------------------------------|
G|--12b~~b~~--lots of whammy-----------|--5---------3-----5------------7-----|
D|-------------------------------------|--5----5----3-----5----5-4-3-3-7-----|
A|-------------------------------------|--3----5----1-----3----5-4-3-3-5-----|
E|-------------------------------------|-------3---------------3-2-1-1-------|
 
   said                    you drive me  nervous    nervous    nervous   


e|-------------------------------------|-------------------------------------|---------|
B|12-slow slide/ lots of whammy to -22-|-------------------------------------|---------|
G|-------------------------------------|--5---------3-----5------------2-----|hold for-|
D|-------------------------------------|--5----5----3-----5----7-5-3-5-2-----|---a-----|
A|-------------------------------------|--3----5----1-----3----7-5-3-5-0-----|full bar-|
E|-------------------------------------|-------3---------------5-3-1-3-------|---------|

   Oh                                 nervous,nervous,nervous,nervous, Woooah, Aah




  Solo, (4 guitars)

e|-------------------------------------|-------------------------------------|
B|-------------------------------------|------------5-5h7--5-7/10------------|
G|--7~-------------7p5---5-------------|--7p5h7--5h7-7-----------------------|
D|--------------------7----------------|-------------------------------------|
A|-------------------------------------|-------------------------------------|
E|-------------------------------------|-------------------------------------|
 |
e|-------------------------------------|-------------------------------------|
B|-------------------------------------|-------------------------------------|
G|--12b14r12b14r14r12----10----------10|\-7-------7-10-12b13r12--------------|
D|-------------------------------------|-------10----------------------------|
A|-------------------------------------|-------------------------------------|
E|-------------------------------------|-------------------------------------|
 |      ^ v  ^ v  ^ v                        ^ v  ^ v  ^ v
e|-------------------------------------|-------------------------------------|    
B|--6---x-x--x-x--x-x--------------6---|--6---x-x--x-x--x-0---10101010101010-|    
G|--7---x-x--x-x--x-x-------7b9----5---|--7---x-x--x-x--x-0---12 slowbend 14-|
D|--7---x-x--x-x--x-x--5--------7------|--7---x-x--x-x--x-0------------------|
A|--5------------------5---------------|--5----------------------------------|
E|---------------------3---------------|-------------------------------------|
 |  
e|-------------------------------------|-------------------------------------|
B|-------------------------------------|-------------------------------------|
G|-------------------------------------|-------------------------------------|
D|-------------------------------------|-------------------------------------|
A|--5---------5--------------------3---|--5---------5--------------------3---|
E|-----5-4\3----5-4-3-3-3-1-3--1-3-----|-----5-4\3----5-4-3-3-3-1-3--1-3-----|



 
e|--------------------------------------|-------------------------------------|
B|--------------------------------------|-------------------------------------|
G|-12b12b12bp10--10-12bp10--10-5555b6---|-------------------------------------|
D|-------------12---------12----------5\|-------------------------------------|
A|--------------------------------------|-------------------------------------|
E|--------------------------------------|-------------------------------------|
 |
e|--------------------------------------|-------------------------------------|
B|-------------------13-13-13-13-13--13-|-15b16r15--13--13--------------------|
G|-10--10-12----12b13--------------14---|-------------14----14--12------------|
D|---12---------------------------------|---------------------------15-12-15\-|
A|--------------------------------------|-------------------------------------|
E|--------------------------------------|-------------------------------------|
 |
e|-------------------------------------|--15b16r-15-13--15--------------------|
B|--6---x-x--x-x--x-0------------------|--------------15---15b16r13-----------|
G|--7---x-x--x-x--x-0------------------|----------------------------14-12-14--|
D|--7---x-x--x-x--x-0------------------|--------------------------------------|
A|--5----------------------------------|--------------------------------------|
E|-------------------------------------|--------------------------------------|
 |                    (slowbend)                         ^ v ^
e|-------------------------------------|--5------5--5----5-5-5-----5--5-------|
B|-------------------------------------|--5------5--5----5-5-5-----5--5-------|
G|---------------------5-5-5b6r5-------|--6------6--6----6-6-6-----6--6-------|
D|-------------------------------7-5---|--7------7--7----7-7-7-----7--7-------|
A|--5---------5----------------------7-|--7------7--7----7-7-7-----7--7-------|
E|-----5-4\3----5-4-3------------------|--5------5--5----5-5-5-----5--5-------|







      ^ v  ^ v  ^ v                        ^ v  ^ v  ^ v                     
e|-------------------------------------|-------------------------------------|    
B|--6---x-x--x-x--x-x--------------6---|--6---x-x--x-x--x-0---10101010101010-|    
G|--7---x-x--x-x--x-x-------7b9----5---|--7---x-x--x-x--x-0---12 slowbend 14-|
D|--7---x-x--x-x--x-x--5--------7------|--7---x-x--x-x--x-0------------------|
A|--5------------------5---------------|--5----------------------------------|
E|---------------------3---------------|-------------------------------------|
 |  
e|-------------------------------------|-------------------------------------|
B|-------------------------------------|-------------------------------------|
G|-------------------------------------|-------------------------------------|
D|-------------------------------------|-------------------------------------|
A|--5---------5--------------------3---|--5---------5--------------------3---|
E|-----5-4\3----5-4-3-3-3-1-3--1-3-----|-----5-4\3----5-4-3-3-3-1-3--1-3-----|

 You're outa state, thrown in jail,     ain't got the brass to pay the bail

        ^ v  ^ v  ^ v                        
e|-------------------------------------|--15b16r-15-13--15--------------------|
B|--6---x-x--x-x--x-0------------------|--------------15---15b16r13-----------|
G|--7---x-x--x-x--x-0------------------|----------------------------14-12-14--|
D|--7---x-x--x-x--x-0------------------|--------------------------------------|
A|--5----------------------------------|--------------------------------------|
E|-------------------------------------|--------------------------------------|
 |                    (slowbend)                         ^ v ^
e|-------------------------------------|--5------5--5----5-5-5-----5--5-------|
B|-------------------------------------|--5------5--5----5-5-5-----5--5-------|
G|---------------------5-5-5b6r5-------|--6------6--6----6-6-6-----6--6-------|
D|-------------------------------7-5---|--7------7--7----7-7-7-----7--7-------|
A|--5---------5----------------------7-|--7------7--7----7-7-7-----7--7-------|
E|-----5-4\3----5-4-3------------------|--5------5--5----5-5-5-----5--5-------|
                                       |
                                       |--------------------------------------|
                                       |--15b16r15--13--13--------------------|
                                       |--------------14----14--12------------|
                                       |----------------------------15-12-15\-|
                                       |--------------------------------------|
                                       |--------------------------------------|

 you're mom and papa come up and say,"Honey where'd we fail?"       and then you







  (slow bend, feedback, slow release)
e|-------------------------------------|-------------------------------------|
B|-------------------------------------|-------------------------------------|
G|-------------------------------------|--5---------3----5-------------7-----|
D|--5-b--7----------------r-5----------|--5----5----3----5----5--4--3--7-----|
A|-------------------------------------|--3----5----1----3----5--4--3--5-----|
E|-------------------------------------|-------3--------------3--2--1--------|
  
  scream                    you drive me  nervous  nervous,          and then I


e|-------------------------------------|-------------------------------------|
B|-------------------------------------|-------------------------------------|
G|--12b~~b~~--lots of whammy-----------|--5---------3-----5------------7-----|
D|-------------------------------------|--5----5----3-----5----5-4-3-3-7-----|
A|-------------------------------------|--3----5----1-----3----5-4-3-3-5-----|
E|-------------------------------------|-------3---------------3-2-1-1-------|
 
   scream                    you drive me  nervous    nervous    nervous   


e|-------------------------------------|-------------------------------------|------------------------|
B|12-slow slide/ lots of whammy to -22-|-------------------------------------|------------------------|
G|-------------------------------------|--5---------3-----5------------2-----|hold for----------------|
D|-------------------------------------|--5----5----3-----5----7-5-3-5-2-----|---a--------------------|
A|-------------------------------------|--3----5----1-----3----7-5-3-5-0-----|full bar----------------|
E|-------------------------------------|-------3---------------5-3-1-3-------|------------------------|

  Oh                                 nervous,nervous,nervous,nervous, Woooah, you drive me n-n-n-nervous



e|--------------------------------------|-------------------------------------|
B|----------------------------------6---|--6---x-x--x-x--x-0---10101010101010-|  
G|------7----6---5----------7b9-----5---|--7---x-x--x-x--x-0---12 slowbend 14-|
D|------------------7---6--------7------|--7---x-x--x-x--x-0------------------|
A|--5-----------------------------------|--5----------------------------------|
E|--------------------------------------|-------------------------------------|
 |
e|--------------------------------------|-------------------------------------|
B|--------------10-10-10-10-10-10-------|---------15-15-15-15-15-15-----------|
G|--------------12b13-12b13-12b13r\10---|---------17b19-17b19-17b19r17p15--15-|
D|--------------------------------------|--------------------------------17---|
A|--------------------------------------|-------------------------------------|
E|--------------------------------------|-------------------------------------|

                                  n-n-n-n-nervous                  you drive me
                        

e|--------------------------------------|-------------------------------------|
B|--6---x-x--x-x--x-0--------------6----|-------------------------------------|
G|--7---x-x--x-x--x-0------7b9-----5----|-------------------------------------|
D|--7---x-x--x-x--x-0-----------7-------|--7----------------------------------|
A|--5-----------------------------------|--7----------------------------------|
E|--------------------------------------|--5----------------------------------|
 |                                                Drums.......................
e|--------------------------------------|-------------------------------------|
B|------------------20b22-22-22-22-22~--|-------------------------------------|
G|--------------------------------------|-------------------------------------|
D|--------------------------------------|-------------------------------------|
A|--------------------------------------|-------------------------------------|
E|--------------------------------------|-------------------------------------|

    nervous                     whooa



e|--------------------------------------|-------------------------------------|
B|--------------------------------------|-------------------------------------|
G|--------------------------------------|-------------------------------------|
D|--10-10-9-9-8-8-----7-7-6-6-5-5-------|-------------------------------------|
A|--10-10-9-9-8-8-----7-7-6-6-5-5-------|--5----------------------------------|
E|--8--8--7-7-6-6-----5-5-4-4-3-3-------|-------------------------------------|
 |
e|--------------------------------------|-------------------------------------|
B|--------------------------------------|-------------------------------------|
G|--------------------------------------|--7b9--feedback-~~~~-----------------|
D|--------------------------------------|-------------------------------------|
A|--------------------------------------|-------------------------------------|
E|--------------------------------------|-------------------------------------|