background
Alice Cooper Tablature: Wrapped In Silk

Wrapped In Silk

Words and music by Alice Cooper, Danny Saber, Greg Hampton
From the album Along Came A Spider (2008)
Transcribed by Criss Hart
Email: voyager2@bigpond.net.au

Intro/Verse
e|---------------------------------------------------------------------------|
B|---------------------------------------------------------------------------|
G|---------------------------------------------------------------------------|
D|----2--2--2-----------------------------2------2--2------------------------|
A|----0--0--0---5b-(6)-r5--0--3b-(4)--0---0------0--0---5b-(6)-5--0-3b-(4)~3-|
E|---------------------------------------------------------------------------|



e|-----------------------------------------------------12-----12----12-------|
B|----7b-8-r7--5--7-------------------------------15b17--15b17--15b17--15b17~|
G|----7b-8-r7--5--7----------------------------------------------------------|
D|---------------------------------------2-----------------------------------|
A|---------------------6----5----3---3---0-----------------------------------|
E|---------------------------------------------------------------------------|


 Chrous  wrapped in silk    Bathed in white     wrapped in silk
e|---------------------------------------------------------------------------|
B|---------------------------------------------------------------------------|
G|---------------------------------------------------------------------------|
D|-----------9---7---5---------5-------2------------9----7---5---------------|
A|-----------7---5---3---------3---5---0------------7----5---3---------------|
E|---------------------------------3-----------------------------------------|


   i'll  make  that dream come  true    tonight 
e|---------------------------------------------------------------------------|
B|---------------------------------------------------------------------------|
G|---------------------------------------------------------------------------|
D|--5-----5-----------------7-----7-----5----5-------------------------------|
A|--3-----3-----5-----5-----5-----5-----3----3-------------------------------|
E|--------------3-----3------------------------------------------------------|


   Yes tonight X 3    Tonights the night 
e|---------------------------------------------------------------------------|
B|---------------------------------------------------------------------------|
G|---------------------------------------------------------------------------|
D|--5---4---2-----------5------------7---------------------------------------|
A|--3---2---0-----------3------5-----5---------------------------------------|
E|-----------------------------3---------------------------------------------|


 Fill 1  Did you see the holy light 
e|---------------------------------------------------------------------------|
B|---------------------------------------------------------------------------|
G|---------------------------------------------------------------------------|
D|---------------------------------------------------------------------------|
A|---------------------------------------------------------------------------|
E|-------3b--0---3b---0--3b-0--3~--------------------------------------------|


 Fill 2 Yes tonight                      Yes tonight        Tonights the night
e|---------10----------------------------------------------------------------|
B|---------13b-15-r13--10--10-------13---------------------------------------|
G|----------------------12b-14-r12--12b14---------7b9--(9--9--9-9)---7---7b9-|
D|----------------------------------------------------(slow release)---------|
A|---------------------------------------------------------------------------|
E|---------------------------------------------------------------------------|

                                               Ill turn off your lights 
e|----------10---------------------------------------------------------------|
B|----------13b-15-r13--10--10-------13--------------------------------------|
G|------------------------12b-14-r12--12b14----------------------------------|
D|----------------------------------------------------------------7----------|
A|----------------------------------------------------------------5----------|
E|---------------------------------------------------------------------------|

  Where did you get that skin Its cover up all you sin i wonder what underneath
e|---------------------------------------------------------------------------|
B|---------------------------------------------------------------------------|
G|--------------------------------------------------12b14--------------------|
D|---13---------12-------10---------13-----12---10---------------------------|
A|----------------------------------------------------------0----------------|
E|--------------------------------------------------------(Drop A With Trem--|



Intro played with slight variations 



| /  slide up
| \  slide down
| h  hammer-on
| p  pull-off
| ~  vibrato
| +  harmonic
| x  Mute note