background
Alice Cooper Tablature: Wake The Dead

Wake The Dead

From the album Along Came A Spider
Transcribed by DoteStudios

Keys
b = bend
r = release
\ = slide up neck 
/ = slide down neck
h = hammer-on
p = pull-off
~ = hold note
w = whammy bar
v = vibrato


Wake the Dead


“How many more will cross my path
How many more must die
I never wonder where they come from
I never wonder why
You don't know what's going on inside of me
You don't wanna know what's running through my mind, yeah yeah yeah”

“Sick… Sick…”
E---------------------------------------------------------------------|
B---------------------------------------------------------------------|
G-7b8r7-5-7--5-7b8r7-5-7--7p5h7p5p0--7b8r7-5-7------------------------|
D----------------------------------------------0-7-0-6-0-5-4-3--------|
A---------------------------------------------------------------------|
E---------------------------------------------------------------------|
“You wake up every morning thinking everything's okay
But if by chance you walk my way you just may seal your fate
Give me a redhead, give me a brunette, send a blonde to me
When I unwind I'm colour blind, they're all the same to me"

“Sick… Sick…”
E---------------------------------------------------------------------|
B---------------------------------------------------------------------|
G-7b8r7-5-7--5-7b8r7-5-7--7p5h7p5p0--7b8r7-5-7------------------------|
D----------------------------------------------0-7-0-6-0-5-4-3--------|
A---------------------------------------------------------------------|
E---------------------------------------------------------------------|

“Shake my head, wake the dead
Shake my head, wake the dead”
E-----------------------------------------|
B-----------------------------------------|
G-7--7--7---5--7------7--7--7---5--7--10--|
D-7--7--7---5--7--5---7--7--7---5--7--10--|
A-5--5--5---3--5--5---5--5--5---3--5---8--|
E-----------------3-----------------------|

“Run for your life, you better run for your life
Run for your life, you gotta run for your life”
E-------------------------------------------------|
B-------------------------------------------------|
G-------------------------------------------------|
D-7-6-5--------5-7-6-5----7-6-5--------5-7-6-5----|
A-------8--5-8---------8--------8--5-8---------5--|
E-------------------------------------------------|

“I just do the things I do, it's natural to me
There's no rhyme or reason for my odd insanity
You don't know what's going on inside of me
You don't wanna know what's going through my mind, yeah yeah yeah”

“Shake my head, wake the dead
Shake my head, wake the dead
Shake my head, wake the dead
Shake my head, wake the dead”
E-----------------------------------------|
B-----------------------------------------|
G-7--7--7---5--7------7--7--7---5--7--10--| 2x
D-7--7--7---5--7--5---7--7--7---5--7--10--|
A-5--5--5---3--5--5---5--5--5---3--5---8--|
E-----------------3-----------------------|

“Run for your life, you better run for your life
Run for your life, you gotta run for your life”
E-------------------------------------------------|
B-------------------------------------------------|
G-------------------------------------------------|
D-7-6-5--------5-7-6-5----7-6-5--------5-7-6-5----|
A-------8--5-8---------8--------8--5-8---------5--|
E-------------------------------------------------|

“(You gotta... you gotta... you gotta... you gotta... 
You gotta... wake up wake up, you gotta... wake up wake up, 
Wake up wake up, wake up wake up, wake up wake up, 
Wake up wake up, wake up wake up, wake up wake up, 
Wake up wake up)”