background
Alice Cooper Tablature: Vengeance Is Mine

Vengeance Is Mine

From the album Along Came A Spider
Transcribed by chaos_theory_92@yahoo.com

This is only the intro, I'm shure someone will be able to figure out some of the rest!

Version 1: Tuning drop - D

e|-------------------------------------------------------
B|-------------------------------------------------------
G|-------------------------------------------------------	
D|-------------------------------------------------------
A|---------5-------------3-------------------------------
D|--0-0-------5---3---3-----2---0--3--5------------------
  Listen to the song to get the timing and Wah-wah right



Version 2 : tuning standard

e|-------------------------------------------------------
B|-------------------------------------------------------
G|-------------------------------------------------------
D|-------------------------------------------------------
A|--2-2----7----------7-----5----------------------------
E|--0-0----0----5--5-----3-----2--0--3--5----------------
  Again listen to the wah and mood right