background
Alice Cooper Tablature: Unfinished Suite

Unfinished Suite

From the album Billion Dollar Babies
Transcribed by DoteStudios

Keys
b = bend
r = release
\ = slide up neck 
/ = slide down neck
h = hammer-on
p = pull-off
~ = hold note

Lead Guitar (Glen Buxton)
E------------------------------------------------|
B------------------------------------------------|
G------------------------------------------------| repeat
D------------------------------------------------|
A-0--0--0--0--0--0--0--0--0--0--0--0--0--0--0--0-|
E------------------------------------------------|

Mike enters and Glen leaves...
Rhythm Guitar (Michael Bruce)
E-----------------------------------------------|
B-7-7-7-7-5~~~----------7-7-7-7-5~~~------------|
G-7-7-7-7-6~~~----------7-7-7-7-6~~~------------|
D-7-7-7-7-7~~~----------7-7-7-7-7~~~------------|
A-----------------------------------------------|
E-----------------------------------------------|

Glen returns...
Lead Guitar
E-----------------------------------------------|
B-----------------------------------------------|
G--------------7-7-6~~----------------7-7-6~~---|
D--------------7-7-7~~----------------7-7-7~~---|
A--------------5-5-7~~----------------5-5-7~~---|
E------------------5~~--------------------5~~---|

Rhythm Guitar
E-----------------------------------------------|
B-7-7-7-7-5~~~----------7-7-7-7-5~~~------------|
G-7-7-7-7-6~~~----------7-7-7-7-6~~~------------|
D-7-7-7-7-7~~~----------7-7-7-7-7~~~------------|
A-----------------------------------------------|
E-----------------------------------------------|

Lead Guitar and Rhythm Guitar
E-----------------------------------------------------|
B-----------------------------------------7-7-7-7-7---|
G-10-10-10-10-----10----------7-7-7-7-7-7-7-7-7-7-7---|
D-10-10-10-10-10--10-10--/7-7-7-7-7-7-7-7-7-7-7-7-7---|
A--8--8--8--8-10---8-10--/5-5-5-5-5-5-5-5-5-5-5-5-5---|
E--------------8------8-------------------------------|

“Candy everywhere, got chocolate in my hair
Aching to get me
Stickly sweet suckers in the halloween air
Aching to get me
Saint vitus dance on my molars tonight”
Lead Guitar
E-------------------------------------------------------|
B-------------------------------------------------------|
G------6h7p6--------------6--------------------7-7--6---|
D-7--7--------7--7--5-5/7---5------------------7-7--7---|
A----------------------------------------------5-5--7---|
E---------------------------------------------------5---|

Rhythm Guitar
E-------------------------------------------------------|
B----------------------------------7-7-7-7--------------|
G----------------------------------7-7-7-7--6~~---------|
D-7----5-7----7--7---7-5-----------7-7-7-7--7~~---------|
A-7----5-7----7--7---7-5-----------5-5-5-5--7~~---------|
E-5----3-5----5--5---5-3--------------------5~~---------|
Play the above parts 3x

“Aching to get me
Aching to get me, get me oh”
Lead Guitar and Rhythm Guitar
E-----------------------------------------------------|
B-----------------------------------------7-7-7-7-7---|
G-10-10-10-10-----10----------7-7-7-7-7-7-7-7-7-7-7---|
D-10-10-10-10-10--10-10--/7-7-7-7-7-7-7-7-7-7-7-7-7---|
A--8--8--8--8-10---8-10--/5-5-5-5-5-5-5-5-5-5-5-5-5---|
E--------------8------8-------------------------------|

“Take it to the doc, I guess he ought to know
La, da, da, da, da”
Lead Guitar
E------------------------------------------------------------12------|
B---------------------------------------------------12-13b14~~~~r13--|
G------6h7p6--------------6---------------------/14------------------|
D-7--7--------7--7--5-5/7---5----------------------------------------|
A--------------------------------------------------------------------|
E--------------------------------------------------------------------|

Rhythm Guitar
E--------------------------------------------------------------------|
B----------------------------------7-7-7-7---------------------------|
G----------------------------------7-7-7-7--6~~----------------------|
D-7----5-7----7--7---7-5-----------7-7-7-7--7~~----------------------|
A-7----5-7----7--7---7-5-----------5-5-5-5--7~~----------------------|
E-5----3-5----5--5---5-3--------------------5~~----------------------|
Play the above parts 3x

“Which ones can stay, which one gotta go
La, da, da, da, da”
Lead Guitar
E---------------------------------------------------------|
B---------------------------------------------------------|
G------6h7p6--------------6-------------------------------|
D-7--7--------7--7--5-5/7---5------------------9-9p7---7--|
A----------------------------------------------------9----|
E---------------------------------------------------------|

Rhythm Guitar
E---------------------------------------------------------|
B----------------------------------7-7-7-7----------------|
G----------------------------------7-7-7-7--6~~-----------|
D-7----5-7----7--7---7-5-----------7-7-7-7--7~~-----------|
A-7----5-7----7--7---7-5-----------5-5-5-5--7~~-----------|
E-5----3-5----5--5---5-3--------------------5~~-----------|
Play the above parts 3x

“He looks in my mouth and then he starts to gloat
he says me teeth are ok, but my gums got to go”
Lead and Rhythm Guitar
E-----------------------------------------------------|
B---------------------------------------------7~~~----|
G-/4-4-4-4-4-4-4-4--/11-11-11-11-11-11-11-11--7~~~----|
D-/4-4-4-4-4-4-4-4--/11-11-11-11-11-11-11-11--7~~~----|
A-/2-2-2-2-2-2-2-2---/9--9--9--9--9--9--9--9--5~~~----|
E-----------------------------------------------------|

Lead Guitar
 “oooooh  oooooh            ooooooh          oohooohoo”
E---------------------------------------------------------------------|
B---------------------------------------------------------------------|
G-7b9~~----7b9~~-----------5----7b9~~----------5----7b9~~----------5--|
D-7b9~~----7b9~~-----5h7-7-5-7--7b9~~----5h7-7-5-7--7b9~~----5h7-7-5-7|
A--------------------5h7-7---7-----------5h7-7---7-----------5h7-7---7|
E---------------------------------------------------------------------|

E-------------------------------------|
B-------------------------------------|
G-7b9~~-7--5-------5----7b9~~-7--5----|
D-7b9~~-7--5-7--7--5-7--7b9~~-7--5-7--|
A------------7--7----7-------------7--|
E-------------------------------------|

Then rhythm guitar and bass come in after the above part…
Rhythm Guitar and Bass
E-------------------------|
B-------------------------|
G-------------------------|
D---------1-2---------3-2-|
A-0-0-3-3-----0-0-3-3-----|
E-------------------------|

Then lead guitar returns (but rhythm and bass continue the above riff)…
Lead Guitar
E---------------------------|
B---------------------------|
G---------------------------| 3x
D---------------------------|
A---------------------------|
E-5-7-7-7-7--5-5-8-8-8-8--7-|

Lead Guitar
E-----------------------------------15-14-----------|
B----------------------8-7------------------16-17\--|
G-----------------------------14-17-----------------|
D-----5-4---------7-10------------------------------|
A----------5-7--------------------------------------|
E-5-8-----------------------------------------------|

Lead Guitar
E-------------------------------------------|
B-----------12-----12-13-----13-15--13--12--|
G-14-----14---------------------------------| 2x
D-----14--------14--------15----------------|
A-------------------------------------------|
E-------------------------------------------|

E-------------------------------------------------|
B------------12-----12-13-----13-15--13--12-------|
G-14-----14---------------------------------12~~--|
D-----14--------14--------15----------------------|
A-------------------------------------------------|
E-------------------------------------------------|

Lead Guitar
E-17-17-17-17-17-17-17-17-17-17-17-17-17-17-17-17-17…|
B----------------------------------------------------|
G----------------------------------------------------|
D----------------------------------------------------|
A----------------------------------------------------|
E----------------------------------------------------|

Rhythm Guitar
E-------------------------------------15-14-----------|
B------------------------8-7------------------16-17\--|
G-------------------------------14-17-----------------|
D------------5-4----7-10------------------------------|
A-----------------------------------------------------|
E-5-8----5-8------------------------------------------|

Lead and Rhythm Guitar
E---------------------------------5~~~--|
B---------------------------7~~~--5~~~--|
G---------------------------7~~~--6~~~--|
D------------------7---2-7--7~~~--7~~~--|
A------------------7---2-7--5~~---7~~~--|
E-(pick scrapes)---5---0-5--------5~~~--|

Lead Guitar
E------------------------------------------------|
B------------------------------------------------|
G------------------------------------------------| repeat
D------------------------------------------------|
A-0--0--0--0--0--0--0--0--0--0--0--0--0--0--0--0-|
E------------------------------------------------|

Rhythm guitar enters…
Lead Guitar
E----------------------12------------|
B---------------/13b15~~~~15r13------|
G-------------------------------14\--|
D------------------------------------|
A------------------------------------|
E------------------------------------|

Rhythm Guitar
E------------------------------------|
B-7-7-7-7--5~~~----------------------|
G-7-7-7-7--6~~~----------------------|
D-7-7-7-7--7~~~----------------------|
A-5-5-5-5--7~~~----------------------|
E----------5~~~----------------------|

Lead Guitar
E----------------------------------------|
B-------------/14--14-14--14-14--14------|
G-----------------------------------14\--|
D----------------------------------------|
A----------------------------------------|
E----------------------------------------|

Rhythm Guitar
E----------------------------------------|
B-7-7-7-7--------------------------------|
G-7-7-7-7--6~~~--------------------------|
D-7-7-7-7--7~~~--------------------------|
A-5-5-5-5--7~~~--------------------------|
E----------5~~~--------------------------|

Lead Guitar
E-------------------------------------------------|
B-------------------------------------------------|
G---------------7-7--6~~----------------7-7--6~~--|
D---------------7-7--7~~----------------7-7--7~~--|
A---------------5-5--7~~----------------5-5--7~~--|
E--------------------5~~---------------------5~~--|

Rhythm Guitar
E-------------------------------------------------|
B-7-7-7-7----------------7-7-7-7------------------|
G-7-7-7-7--6~~~----------7-7-7-7--6~~~------------|
D-7-7-7-7--7~~~----------7-7-7-7--7~~~------------|
A-5-5-5-5--7~~~----------5-5-5-5--7~~~------------|
E----------5~~~-------------------5~~~------------|

“I come off the gas but I’m still seeing spies
Aching to get me
I can see them all through a glassy pair of eyes
Aching to get me
De sades gonna live in my mouth tonight
La, da, da, da, da
And the rotten tooth fairy is satisfied
La, da, da, da, da”
Lead Guitar
E---------------------------------------------|
B---------------------------------------------|
G-------------------------------------7-7--6--|
D-------------------------------------7-7--7--|
A-------------------------------------5-5--7--|
E------------------------------------------5--|

Rhythm Guitar
E---------------------------------------------|
B-7-7-7-7----------------7-7-7-7--------------|
G-7-7-7-7--6-------------7-7-7-7--6-----------|
D-7-7-7-7--7--7--7--7-5--7-7-7-7--7-----------|
A-5-5-5-5--7--7--7--7-5--5-5-5-5--7-----------|
E----------5--5--5--5-3-----------5-----------|
Play the above parts 4x

“Aching to get me, get me”
Lead Guitar
E----------------------------10-----------------------|
B------------------------7~~----10~~--------(repeat)--|
G-10-10-10-10-----10-----7~~----------11--------------|
D-10-10-10-10-10--10-10--7~~-------------12~~---------|
A--8--8--8--8-10---8-10--5~~--------------------------|
E--------------8------8-------------------------------|

Rhythm Guitar
E-----------------------------------------------------|
B------------------------7~~8-7-8-7-8-7-8-(repeat)----|
G-10-10-10-10-----10-----7~~--------------------------|
D-10-10-10-10-10--10-10--7~~--------------------------|
A--8--8--8--8-10---8-10--5~~--------------------------|
E--------------8------8-------------------------------|

Fade out then back in

“Ooooooooh…”

Lead and Rhythm Guitar
E------------------------------|
B------------------------7~~~--|
G-10-10-10-10-----10-----7~~~--|
D-10-10-10-10-10--10-10--7~~~--|
A--8--8--8--8-10---8-10--5~~~--|
E--------------8------8--------|

“OOOOOOooooh…oooh…oooh…oh”