background
Alice Cooper Tablature: Trash

Trash

Words and music by
From the album Trash (1989)
Transcribed by Eric Neveu (ericn@progression.net)

   Guitar one
E|-----------------------------------------------------------------------------|
B|-----------------------------------------------------------------------------|
G|--9--12--9\7---7----7----9---9--12--9\7---7----7---------12--9\7---7----7--9-|
D|--9--12--9\7---7--7-7----9---9--12--9\7---7--7-7---------12--9\7---7--7-7--9-|
A|-----------------------------------------------------------------------------|
E|--------------------------------------------------3b--0----------------------|
 |                                                                             |
 |Guitar two                                                                   |
E|-----------------------------------------------------------------------------|
B|-----------------------------------------------------------------------------|
G|--4-------------------------12\-----------------------4----------------------|
D|--2-------------------------12\-----------------------2----------------------|
A|--2---------------------------------------------------2----------------------|
E|--0-------------------------12\-------------------3b--0-----------------0----|


  Guitar one
E|----------------------------------------------------------------------------|
B|----------------------------------------------------------------------------|
G|--9--12--9\7----4--4--4--4--4\2--0h2-----------------0---4--4--4--4\2--0h2--|
D|--9--12--9\7--------------------------0h2---------2-------------------------|
A|----------------------------------------------------------------------------|
E|----------------------------------------------------------------------------|
 |                                                                            |
 |Guitar two                                                                  |
E|----------------------------------------------------------------------------|
B|--------------------------------------------------9--------------------7----|
G|--12\---------------------------------------------9--------------------7----|
D|--12\---------------------------------------------9--------------------7----|
A|--------------------------------------.--.--.--.--7-------------------------|
E|--12\---------------------------------0--0--0--0----------------------------|


   Guitar one
E-|---------------------------------------------------------------------------|
B-|---------------------------------------------------------------------------|
G-|-----------------0--0/4--4-4--4\2-0-----------------0--0/4--4-4--4\2-0h2---|
D-|--0h2---------2----------------------0h2---------2-------------------------|
A-|---------------------------------------------------------------------------|
E-|-------0----------------------------------0--------------------------------|
  |                                                                           |
  |Guitar two                                                                 |
E-|---------------------------------------------------------------------------|
B-|--------------9-------------------7--------------9-------------------7-----|
G-|--------------9-------------------7--------------9-------------------7-----|
D-|--------------9-------------------7--------------9-------------------7-----|
A-|--.--.--.--.--7----------------------.--.--.--.--7-------------------------|
E-|--0--0--0--0-------------------------0--0--0--0----------------------------|


   Guitar one
E-|---------------------------7-----------------------------------------------|
B-|------------------8--8--8--------------------------------------------------|
G-|---------------------------------------------------------------------------|
D-|--0h2---------2------------------------------------------------------------|
A-|-------------------------------10\-----------------------------------------|
E-|-------0---------------------------0---------------------------------------|
  |                                                                           |
  |Guitar two                                                                 |
E-|---------------------------------------------------------------------------|
B-|--------------9\-----------------------------------------------------------|
G-|--------------9\-----------------------------------------------------------|
D-|--------------9\-----------------------------------------------------------|
A-|--.--.--.--.--7\-----------------------------------------------------------|
E-|--0--0--0--0---------------------------------------------------------------|


      "It ain't the way you crawl across the Cathouse         floor."
      "It's not the way you dress when you socialize."
   Guitar one
E-|---------------------------------------------------------------------------|
B-|---------------------------------------------------------------------------|
G-|---------------------------------------------------------------------------|
D-|---------------------------------------------------------------------------|
A-|----------------------------------------------------5h7---------7----------|
E-|---------------------------------------------3--/7-------0-----------------|
  |                                                                           |
  |Guitar two                                                                 |
E-|---------------------------------------------------------------------------|
B-|----------------------------------------------------------------9----------|
G-|--4-------------------------------------------------------------9----------|
D-|--2-------------------------------------------------------------9----------|
A-|--2-------------------------------------------------.--.--.--.--7----------|
E-|--0------------------------------------------3/6----0--0--0--0-------------|


             "Aw, those eyes."
   Guitar one
E-|---------------------------------------------------------------------------|
B-|---------------------------------------------------------------------------|
G-|---------------------------------------------------------------------------|
D-|--5/9---9--9--9\7--5h7------------------5---9--9--9--9\7--5\---------------|
A-|------------------------5h7---------7--------------------------------------|
E-|------------------------------0--------------------------------------------|
  |                                                                           |
  |Guitar two                                                                 |
E-|---------------------------------------------------------------------------|
B-|-------------------7----------------9\-------------------------------------|
G-|-------------------7----------------9\-------------------------------------|
D-|-------------------7----------------9\-------------------------------------|
A-|------------------------.--.--.--.--7\-------------------------------------|
E-|------------------------0--0--0--0---------------------3b------------------|


       "It ain't the way you curse me when you slam the,         huh,
       "It ain't the diamond rock  or that       Rolls you drive."
   Guitar one
E-|---------------------------------------------------------------------------|
B-|---------------------------------------------------------------------------|
G-|---------------------------------------------------------------------------|
D-|---------------------------------------------------------------------------|
A-|-------------------------------------------------------------5h7------7----|
E-|----------------------------------------------------3/6-----------0--------|
  |                                                                           |
  |Guitar two                                                                 |
E-|---------------------------------------------------------------------------|
B-|----------------------------------------------------------------------9----|
G-|--4-------------------------------------------------------------------9----|
D-|--2-------------------------------------------------------------------9----|
A-|--2----------------------------------------------------------.-.-.-.--7----|
E-|--0----------------------------------------------------------0-0-0-0-------|


          "bedroom door.
   Guitar one
E-|---------------------------------------------------------------------------|
B-|---------------------------------------------------------------------------|
G-|---------------------------------------------------------------------------|
D-|--5--5---9--9--9--9--9\7--5h7--------------5--5---9--9--9--9--9\7--5\------|
A-|-------------------------------5h7------7----------------------------------|
E-|------------------------------------0--------------------------------------|
  |                                                                           |
  |Guitar two                                                                 |
E-|---------------------------------------------------------------------------|
B-|--------------------------7-------------9\-------------------------x-x-----|
G-|--------------------------7-------------9\-------------------------x-x-----|
D-|--------------------------7-------------9\-------------------------x-x-----|
A-|-------------------------------.-.-.-.--7\---------------------------------|
E-|-------------------------------0-0-0-0-------------------------------------|


       "It ain't the way you sweat me for a handful of
       "Oh, you can walk the streets with all your uptown
   Guitar one
E-|-----------------------------------14~~-----14~~-----14~~------------------|
B-|---------------------------------------------------------------------------|
G-|--7---------------------------/14-------14-------14-------14---------------|
D-|--7------------------------------------------------------------------------|
A-|--5------------------5--5--------------------------------------5h7------7--|
E-|--------------------------------------------------------------------0------|
  |                                                                           |
  |Guitar two                                                                 |
E-|---------------------------------------------------------------------------|
B-|--7-------------------------------------------------7\------------------9--|
G-|--7-------------------------------------------------7\------------------9--|
D-|--7-------------------------------------------------7\------------------9--|
A-|--5----------------------------------------------5-------------.-.-.-.--7--|
E-|---------------------------------------------------------------0-0-0-0-----|


         "easy cash."
         "flash."
   Guitar one
E-|---------------------------------------------------------------------------|
B-|---------------------------------------------------------------------------|
G-|---------------------------------------------------------------------------|
D-|--5--5---9--9--9--9--9\7--5h7---------------5--5---9--9--9--9--9\7--5\-----|
A-|-------------------------------5h7-------7---------------------------------|
E-|------------------------------------0--------------------------------------|
  |                                                                           |
  |Guitar two                                                                 |
E-|---------------------------------------------------------------------------|
B-|----------------------------7------------9---------------------------------|
G-|----------------------------7------------9---------------------------------|
D-|----------------------------7------------9---------------------------------|
A-|--------------------------------.-.-.-.--7---------------------------------|
E-|--------------------------------0-0-0-0--------------------------3b--------|


       "It's just the way you love me when you turn to
       "But when you hit the  sheets, you just turn to
   Guitar one
E-|---------------------------------------------------------------------------|
B-|---------------------------------------------------------------------------|
G-|-----------------------------------4------4------12\-----------------------|
D-|--2-------------------------4------4------4------12\-----------------------|
A-|--0-------------------------2----------------------------------------------|
E-|---------------------------------------------------------------------------|
  |                                                                           |
  |Guitar two                                                                 |
E-|---------------------------------------------------------------------------|
B-|---------------------------------------------------------------------------|
G-|--2------------------------2-----------------------------------------------|
D-|--2------------------------1-----------------------------------------------|
A-|--0------------------------2-----------------------------------------------|
E-|---------------------------------------------------------------------------|


          "trash."
          "trash."
   Guitar one
E-|---------------------------------------------------------------------------|
B-|---------------------------------------------------------------------------|
G-|------12\9\7---7---7--7--7--7h9--------12\9---7---7---7--7--7--------------|
D-|------12\9\7---7---7--7--7--7h9--------12\9---7---7---7--7--7--------------|
A-|---------------------------------------------------------------------------|
E-|--0--------------------------------0----------------------------3b---------|
  |                                                                           |
  |Guitar two                                                                 |
E-|---------------------------------------------------------------------------|
B-|----------------------------------------------------------------5----------|
G-|------12\--7---7-------7----7-9--------12\---7----7------7---7--4----------|
D-|------12\--7---7-------7----7-9--------12\---7----7------7---7-------------|
A-|-------------9-------9--------------------------9------9-------------------|
E-|-------------------------------------------------------------0--3b---------|
  |                                                                           |
  |Play second time                                                           |
E-|------3--3--3--0---------------------|--3--3--0--0-------------------------|
B-|-------------------3--------3---3--0-|----------------3---3--3-------------|
G-|------------------------/7-----------|--------------------------0b---------|
D-|-------------------------------------|-------------------------------------|
A-|-------------------------------------|-------------------------------------|
E-|-------------------------------------|-------------------------------------|


      "Trash.                               Yeah!"
      "                                you're such trash."
   Guitar one
E-|---------------------------------------------------------------------------|
B-|---------------------------------------------------------------------------|
G-|------12\9---7---7---7--7--7--7h9--------12\9---7--------------------------|
D-|------12\9---7---7---7--7--7--7h9--------12\9---7--9--9--9--9--9\5--5h7----|
A-|---------------------------------------------------------------------------|
E-|--0---------------------------------0--------------------------------------|
  |                                                                           |
  |Guitar two                                                                 |
E-|---------------------------------------------------------------------------|
B-|--5------------------------------------------------------------------------|
G-|--4---12\--7-----7-------7----7-9--------12\---7----7------7----7----------|
D-|------12\--7-----7-------7----7-9--------12\---7----7------7----7----------|
A-|---------------9-------9--------------------------9------9----9------------|
E-|--------------------------------------------------------------------3\2----|
  |                                                                           |
  |Play second time                                                           |
E-|--------------0------------------0--------3----0---------------------------|
B-|-------------------3---3--3---3--0-----------------------------------------|
G-|-----0b-rb-b----------------------------------------2b-rb-b-rb-------------|
D-|---------------------------------------------------------------------------|
A-|---------------------------------------------------------------------------|
E-|--0-----------------------------------0------------------------------------|


        "I love the way you look, you're such a high   class    tramp."
   Guitar one
E-|---------------------------------------------------------------------------|
B-|---------------------------------------------------------------------------|
G-|---------------------------------------------------------------------------|
D-|--2-----4--------2---4---2--------2---4----2--2--2--4----2-----------------|
A-|--0-----0--------0---0---0--------0---0----0--0--0--0----0-----------------|
E-|-------------------------------------------------------------0-------------|
  |                                                                           |
  |Guitar two                                                                 |
E-|---------------------------------------------------------------------------|
B-|---------------------3-----------------------------------------------------|
G-|--2------------------2---2-------------------------------------------------|
D-|--2------------------4---2-------------------------------------------------|
A-|--0------------------0---0-------------------------------------------------|
E-|----------------------------------------------------3~~~-------------------|


                                    "Huh."
                               "I like a tramp."
   Guitar one
E-|------7------7------7---------------------7------7------7------------------|
B-|--/8-----8------8---8----------------/8------8------8---8------------------|
G-|------------------------9\----------------------------------9\-------------|
D-|---------------------------------------------------------------------------|
A-|---------------------------------------------------------------------------|
E-|-----------------------------0---0-----------------------------------------|
  |                                                                           |
  |Guitar two                                                                 |
E-|---------------------------------------------------------------------------|
B-|---------------------------------------------------------------------------|
G-|---9----------------9---7---------x--9-------------------------------------|
D-|---9----------------9---7---------x--9-------------------------------------|
A-|---7----------------7-------------x--7-------------------------------------|
E-|-----------------------------0----------------------------3b---------------|


        "It's not the way you touch   me when you
   Guitar one
E-|---------------------------------------------------------------------------|
B-|---------------------------------------------------------------------------|
G-|---------------------------------------------------------------------------|
D-|---2--------4------2-----4-----2---2---4-------2----2----------------------|
A-|---0--------0---0--0-----0-----0---0---0---0---0----0----------------------|
E-|---------------------------------------------------------------------------|
  |                                                                           |
  |Guitar two                                                                 |
E-|---------------------------------------------------------------------------|
B-|---------------------------------------------------------------------------|
G-|--2------------------------------------------------------------------------|
D-|--2------------------------------------------------------------------------|
A-|--0------------------------------------------------------------------------|
E-|-----------------------------------------------------3~~~------------------|


       "Whew!                    Yeah."
                         "Make me understand. Aw, Yeah."
   Guitar one
E-|------------------------------------------0--------------------0-----------|
B-|------------------------------------------0--------------------0-----------|
G-|------------------------------------------1--------------------------------|
D-|------------------------------------------2--------------------------------|
A-|--2---2---4------------------------2--2------------------------------------|
E-|--0---0---0---0--2b-----2p0----0---0--0-------0--2b-rb-b-p0----------------|
  |                                                                           |
  |Guitar two                                                                 |
E-|---------------------------------------------------------------------------|
B-|---------------------------------------------------------------------------|
G-|----------9---------------9----7------x---9--------------------------------|
D-|----------9---------------9----7------x---9--------------------------------|
A-|----------7---------------7-----------x---7--------------------------------|
E-|------------------------------------------------------------3b-------------|
  |                                                                           |
  |Guitar three                                                               |
E-|---------------------------------------------------------------------------|
B-|---------------------------------------------------------------------------|
G-|--2b-------rb------2b--2b--2b-----2b--2b--2b--2b---------------------------|
D-|---------------------------------------------------------------------------|
A-|---------------------------------------------------------------------------|
E-|---------------------------------------------------------------------------|


    "You're daddy's dream, you're a peach and cream, and you're  finally
   Guitar one
E-|---------------------------------------------------------------------------|
B-|---------------------------------------------------------------------------|
G-|---------------------------------------------------------------------------|
D-|---2--------4------2-----4-----2---2---4---2---2----2---4------------------|
A-|---0--------0---0--0-----0-----0---0---0---0---0----0---0------------------|
E-|--------------------------------------------------------------0------------|
  |                                                                           |
  |Guitar two                                                                 |
E-|---------------------------------------------------------------------------|
B-|---------------------------------------------------------------------------|
G-|--2------------------------------------------------------------------------|
D-|--2------------------------------------------------------------------------|
A-|--0------------------------------------------------------------------------|
E-|-------------------------------------------------------3~~~---0------------|


    "ripe at last."
   Guitar one
E-|----------7------7------7----------------------7------7------7-------------|
B-|-----/8------8------8---8-----------------/8------8------8---8-------------|
G-|-----------------------------9\----------------------------------9\--------|
D-|---------------------------------------------------------------------------|
A-|---------------------------------------------------------------------------|
E-|----------------------------------0---0------------------------------------|
  |                                                                           |
  |Guitar two                                                                 |
E-|---------------------------------------------------------------------------|
B-|---------------------------------------------------------------------------|
G-|------9-----------------9----7-------------9-------------------------------|
D-|------9-----------------9----7-------------9-------------------------------|
A-|------7-----------------7------------------7-------------------------------|
E-|----------------------------------0---0----------------------3b------------|
  |                                                                           |
  |Guitar three                                                               |
E-|---------------------------------------------------------------------------|
B-|---------------------------------------------------------------------------|
G-|---------------------------------------------------------------------------|
D-|------2------------------------------------2-------------------------------|
A-|---------------------------------------------------------------------------|
E-|--0---------2b-rb-b-rb--0-------------0----------2b-rb-b-rb-----4----------|


------

      "But when you hit  the sheets, you just    turn to
   Guitar one
E-|---------------------------------------------------------------------------|
B-|---------------------------------------------------------------------------|
G-|---------------------------------------------------------------------------|
D-|--2--2----4---2---2---4-----2------4---4---4----4--4-----------------------|
A-|--0--0----0---0---0---0-----0------2---2---2----2--2-----------------------|
E-|---------------------------------------------------------------------------|
  |                                                                           |
  |Guitar two                                                                 |
E-|---------------------------------------------------------------------------|
B-|---------------------------------------------------------------------------|
G-|--2-------------------------2----------------------------------------------|
D-|--2-------------------------1----------------------------------------------|
A-|--0-------------------2----------------------------------------------------|
E-|---------------------------------------------------------------------------|


    "Trash.
   Guitar one
E-|------3--3---0-------------------0--------3--3--0--0-----------------------|
B-|------------------3---3--3----3--0--------------0--0----3---3--3----0------|
G-|----------------------------------------------------------------------0h1--|
D-|---------------------------------------------------------------------------|
A-|---------------------------------------------------------------------------|
E-|--0-----------------------------------0------------------------------------|
  |                                                                           |
  |Guitar two                                                                 |
E-|---------------------------------------------------------------------------|
B-|---------------------------------------------------------------------------|
G-|-----12\-----7-------7------7--7h9-------12\-------7-------7------7h9------|
D-|-----12\-----7-------7------7--7h9-------12\-------7-------7------7h9------|
A-|------------------9------9------------------------------9------9-----------|
E-|---------------------------------------------------------------------------|


    "Trash.
   Guitar one
E-|--0----3--3--0--0------------------0------3--3--0--0-----------------------|
B-|---------------------3----0--0---0-------------------------3---3--3--0-----|
G-|----------------------------------------------------------------------0h1--|
D-|---------------------------------------------------------------------------|
A-|---------------------------------------------------------------------------|
E-|---------------------------------------------------------------------------|
  |                                                                           |
  |Guitar two                                                                 |
E-|---------------------------------------------------------------------------|
B-|---------------------------------------------------------------------------|
G-|-----12\-----7-------7------7--7--9-------12\------7-------7------7--------|
D-|-----12\-----7-------7------7--7--9-------12\------7-------7------7--------|
A-|------------------9------9------------------------------9------9-----------|
E-|--------------------------------------------------------------------0--3b--|


                      "Come on, Mama.         Let me climb on board."
   Guitar one
E-|---------------------------------------------------------------------------|
B-|---------------------------------------------------------------------------|
G-|------12/13---12/13---12/13---12/13-------12/13---12/13---12/13---12/13----|
D-|------11/12---11/12---11/12---11/12-------11/12---11/12---11/12---11/12----|
A-|---------------------------------------------------------------------------|
E-|--0------------------------------------------------------------------------|
  |                                                                           |
  |Guitar two                                                                 |
E-|---------------------------------------------------------------------------|
B-|---------------------------------------------------------------------------|
G-|--4------------------------------------------------------------------------|
D-|--2------------------------------------------------------------------------|
A-|--2------------------------------------------------------------------------|
E-|--0------------------------------------------------------------------------|


                             "Ow!"
   Guitar one
E-|---------------------------------------------------------------------------|
B-|---------------------------------------------------------------------------|
G-|--12/13---12/13---12/13---12/13-------12/13---12/13---12/13---12/13--------|
D-|--11/12---11/12---11/12---11/12-------11/12---11/12---11/12---11/12--------|
A-|---------------------------------------------------------------------------|
E-|---------------------------------------------------------------------------|


  Solo
   Guitar one
E-|----------------------------------------------------------------12--10h12--|
B-|--AH-----------------------------------------------------------------------|
G-|--7b------9b-rb---7--9---7h9p7---12b-rb----7b----7h9--9\(1)/13-------------|
D-|---------------------------------------------------------------------------|
A-|---------------------------------------------------------------------------|
E-|---------------------------------------------------------------------------|
  |                                                                           |
  |Guitar two                                                                 |
E-|---------------------------------------------------------------------------|
B-|---------------------------------------------------------------------------|
G-|--4---------------------------------------------------9-------------7------|
D-|--2---------------------------------------------------9-------------7------|
A-|--2------------------------------------------.-.-.-.--7--------------------|
E-|--0------------------------------------------0-0-0-0-----------------------|
  |                                                                           |
  |Guitar three                                                               |
E-|---------------------------------------------------------------------------|
B-|---------------------------------------------------------------------------|
G-|---------------------------------------------------------------------------|
D-|-------------------------------------------------------5/9--9-9-9-9\7--5h7-|
A-|-------------------------------------------5h7------7----------------------|
E-|-----------------------------------4--7---------0--------------------------|


   Guitar one
E-|---10~~~--------12p10------10h12~--15b--15------------17b---15-------------|
B-|-----------------------12---------------------15--15--17b------17--17~~----|
G-|---------------------------------------------------------------------------|
D-|---------------------------------------------------------------------------|
A-|---------------------------------------------------------------------------|
E-|---------------------------------------------------------------------------|
  |                                                                           |
  |Guitar two                                                                 |
E-|---------------------------------------------------------------------------|
B-|---------------------------------------------------------------------------|
G-|-----------9\---------------------4----------------------------------------|
D-|-----------9\---------------------2----------------------------------------|
A-|--.-.-.-.--7\---------------------2----------------------------------------|
E-|--0-0-0-0-------------------3b----0----------------------------------------|
  |                                                                           |
  |Guitar three                                                               |
E-|---------------------------------------------------------------------------|
B-|---------------------------------------------------------------------------|
G-|---------------------------------------------------------------------------|
D-|-------------------9-9-9-9--9\7--------------------------------------------|
A-|--5h7-------7-7-7----------------------------------------------------------|
E-|------0--0------------------------3----------------------------------------|


   Guitar one
E-|--12-------------------12------------------12------------------12----------|
B-|------15p12-------12-------15p12-------12------15p12-------12------15b-----|
G-|-------------14b------------------14b-----------------14b------------------|
D-|---------------------------------------------------------------------------|
A-|---------------------------------------------------------------------------|
E-|---------------------------------------------------------------------------|
  |                                                                           |
  |Guitar two                                                                 |
E-|---------------------------------------------------------------------------|
B-|---------------------------------------------------------------------------|
G-|--------------------------------9------------------------------------------|
D-|--------------------------------9------------------------------------------|
A-|-----------------------.-.-.-.--7------------------------------------------|
E-|-----------------------0-0-0-0---------------------------------------------|
  |                                                                           |
  |Guitar three                                                               |
E-|---------------------------------------------------------------------------|
B-|---------------------------------------------------------------------------|
G-|---------------------------------------------------------------------------|
D-|---------------------------------------------------------------------------|
A-|----------------------5h7-------7----------9-------9-------9-------9-------|
E-|------4-------5h7---------0--0---------------------------------------------|


   Guitar one
E-|--15------17b~~~---22b-----------------------------------------------------|
B-|------15-------------------------------------------------------------------|
G-|---------------------------------------------------------------------------|
D-|--------------------------------------x\-----------------------------------|
A-|---------------------------------------------------------------------------|
E-|---------------------------------------------------------------------------|
  |                                                                           |
  |Guitar two                                                                 |
E-|---------------------------------------------------------------------------|
B-|---------------------------------------------------------------------------|
G-|--7----------------9-------------------------------------------------------|
D-|--7----------------9-------------------------------------------------------|
A-|----------.-.-.-.--7-------------------------------------------------------|
E-|----------0-0-0-0---------------------3b-----------------------------------|
  |                                                                           |
  |Guitar three                                                               |
E-|---------------------------------------------------------------------------|
B-|---------------------------------------------------------------------------|
G-|---------------------------------------------------------------------------|
D-|--9\7--5h7-----------------------------------------------------------------|
A-|------------5h7--------7--5-5--9-9-9-9-9-----------------------------------|
E-|-----------------0--0---------------------3b-------------------------------|


               "Trash."
   Guitar one
E-|---------------------------------------------------------------------------|
B-|---------------------------------------------------------------------------|
G-|-----12/13---12/13---12/13---12/13------------12/13---12/13--12/13--12/13--|
D-|-----11/12---11/12---11/12---11/12------------11/12---11/12--11/12--11/12--|
A-|---------------------------------------------------------------------------|
E-|--0----------------------------------------0-------------------------------|
  |                                                                           |
  |Guitar two                                                                 |
E-|---------------------------------------------------------------------------|
B-|-----9--9-----9--9----9-----x--9---7--7--7----9--9-----9--9----9---x--9----|
G-|-----9--9-----9--9----9-----x--9---7--7--7----9--9-----9--9----9---x--9----|
D-|-----9--9-----9--9----9-----x--9---7--7--7----9--9-----9--9----9---x--9----|
A-|-----7--7-----7--7----7-----x--7--------------7--7-----7--7----7---x--7----|
E-|---------------------------------------------------------------------------|


   Guitar two
E-|---------------------------------------------------------------------------|
B-|--7--7--7------------------------------------------------------------------|
G-|--7--7--7------------------------------------------------------------------|
D-|--7--7--7------------------------------------------------------------------|
A-|---------------------------------------------------------------------------|
E-|---------------------------------------------------------------------------|