background
Alice Cooper Tablature: Some Folks

Some Folks

Words and music by Alice Cooper, Dick Wagner and Bob Ezrin
From the album Welcome To My Nightmare (1975)
Transcribed by ???

 Intro
-------|----------|-----------|-----------|-----------|
-------|----------|-----------|-----------|-----------|
-------|----------|-----------|-----------|-----------|
-------|----------|-----------|-----------|-----------|
----1--|3---------|3-------1--|3----------|3-------1--|
3------|-----3----|----3------|-----3----|----3------|
                                             Some Folks
Verse
||:------------|--------------|------------|-------------|-------------|-----------|
||:------------|--------------|------------|-------------|-------------|-----------|
||:------------|--------------|------------|-------------|-------------|-----------|
||:------------|--------------|------------|-------------|---1---0-1-0-|-----------|
||:3-----------|3---------1---|3-----------|3---------1--|3------------|-3------1--|
||:------3-----|-----3--------|------3-----|-----3-------|-------------|-----3-----|
 love to see red some folks never talk about it some folks crave a blue lady some folks
 love to feel the pain some folks wake up ev'ry morning some folks live for no reason


---------------|------------------|-------------|------------------|-----------------|
---------------|------------------|-------------|------------------|-----------------|
---------------|------------------|-------------|------------------|-----------------|
1-0-1----------|------------------|-------------|------------------|-----------------|
------3--1--3--|------------------|-------3-----|--------3---------|--------3--------|
---------------|------------3--2--|1------------|1-----------------|1----------------|
know and still they doubt it       i'm just no  good without it I'm not a man at all
some folks die without a warning
                                                                                to %
-----------------------|------------|-------------|---------------|--------------|
-----------------------|------------|-------------|---------------|--------------|
-----------------------|------------|-------------|---------------|--------------|
--------1--------------|--1---------|-------------|1-0-1----------|--------------|
--3-3-3------3---------|------3-1-3-|-3---3----1--|------3--1--3--|-----------0--|
1----------------------|------------|------3------|---------------|--------3-----|
it makes my skin crawl
                                            1._________________________________________
||:1-------1------1----|---1------1---------|-------------------|----------------------:||
||:3-------3------3----|---3------3---1---0-|3------1-------3---|---1-------1-----1----:||
||:3-------3------3----|---3------3------3--|2------2-------2---|---2-------2-----2----:||
||:--------------------|--------------------|3------3-------3---|---3-------3-----3----:||
||:1----1----1----1----|1----1----1----1----|-------------------|----------------------:||
||:--------------------|--------------------|1----1----1----1---|1-----1----1-----1----:||
   Ba     by      ba      by     come on and save   me     save    me       my    my

2.____________________2/4_________
-----------------------|----------|
3------1--1------------|----------|
2---------2------------|----------|
3---------3------------|----------|
-----------------------|----------|
1------1--1------------|----------|
save   me now                     To intro and verse 2

%
                                            1.2________________________________________
||:1-------1------1----|---1------1---------|-------------------|----------------------:||
||:3-------3------3----|---3------3---1---0-|3------1-------3---|---1-------1-----1----:||
||:3-------3------3----|---3------3------3--|2------2-------2---|---2-------2-----2----:||
||:--------------------|--------------------|3------3-------3---|---3-------3-----3----:||
||:1----1----1----1----|1----1----1----1----|-------------------|----------------------:||
||:--------------------|--------------------|1----1----1----1---|1-----1----1-----1----:||
   Ba     by      ba      by     come on and save   me     save    me       my    my

3.__________________________________________
-----------------------|---------------------|
3------1--1------------|---------------------|
2---------2------------|---------------------|
3---------3------------|---------------------|
-----------------------|---------------------|
1------1--1------------|---------------------|
save   me now

||:-------------|------------|------------|------------|------------|------------|
||:4------4-----|4------4----|4------4----|4------4----|4------4----|4-----4-----|
||:5------5-----|5------5----|5------5----|5------5----|5------5----|5-----5-----|
||:5------5-----|5------5----|5------5----|5------5----|5------5----|5-----5-----|
||:3-3--3--3-3--|3-3--3--3-3-|------------|------------|------------|------------|
||:-------------|------------|6-6--6--6-6-|6-6--6--6-6-|4-4--4--4-4-|4-4--4--4-4-|
I just can't live without it just can't live without it I don't want to think about

             1.____________    2._________
-------------|-------------:|| -----------|-------------|-----------|------------|
1------1-----|1------1-----:|| 1----------|-------------|-----------|------------|
2------2-----|2------2-----:|| 2----------|-------------|-----------|------------|
3------3-----|3------3-----:|| 3----------|-------------|-----------|1-0-1-------|
-------------|-------------:|| -------11--|3---3--1---1-|--------1--|------3-1--3|
1-1--1--1-1--|1-1--1--1--1-:|| 1---3------|-------------|4---3------|------------|
it don't want to think about it