background
Alice Cooper Tablature: Snakebite

Snakebite

Words and music by Cooper, Ponti, Pepe, Pfeifer, Bulen, Keeling
From the album Hey Stoopid (1992)
Transcription by Kevin Underwood A.K.A. Prince Alice and M\sterShake
Email: chaos_theory_92@yahoo.com

 
  Tuning: Stander tuning down whole one step

Guitar 1
                                                        PM PM     PM PM      
D||--------------------|-------------------------|----------------------------|
A||.-------------------|-------------------------|----------------------------|
F||--------------------|-------9-----9--9-----9--|-----9----------------------|
C||.-------------------|-------9-----9--8-----8--|-----9----------------------|
G||--------------------|-------7-----7--7-----7--|-----7--------2~------------|
D||--------------------|--0----------------------|--------0--3------0--3--5~--|

                                  PM PM            2x                       
-------------------------|------------------------||
-------------------------|--------------3--------.||
-------9-----9--9-----9--|-----9--------2---------||
-------9-----9--8-----8--|-----9--------0--------.||
-------7-----7--7-----7--|-----7--------0---------||
--0----------------------|--------3--0------------||

||-------------------|----------------------|-------------------||
||-------------------|----------------------|-------------------||
||-------------------|----------------------|-------------------||
||--3----------------|------------------3-3-|--3----------------||
||--3----------------|------------------3-3-|--3----------------||
||--1----------------|------------------1-1-|--1----------------||


                                   PM PM     PM PM                          
||-------------------------|----------------------------|-------------------
||-------------------------|----------------------------|-------------------
||-------9-----9--9-----9--|-----9----------------------|-------------------
||-------9-----9--8-----8--|-----9----------------------|--5----------------
||-------7-----7--7-----7--|-----7--------2~------------|--5----------------
||--0----------------------|--------0--3------0--3--5~--|--3----------------

                                  PM PM           PM PM                   
-------------------|------------------------|----------------------------
-------------------|------------------------|----------------------------
--8----------------|--5---------------------|----------------------------
--8----------------|--5---------------------|----------------------------
--6----------------|--3-----------------3~--|--L--------3--4~--3---------
-------------------|--------------3--6------|-----3--6------------6~--3--

-------------------|-------------------|-------------------------||
-------------------|-------------------|-------------------------||
-------------------|--8----------------|--5----------------------||
--5----------------|--8----------------|--5----------------------||
--5----------------|--6----------------|--3----3--3--3--3--3--3--||
--3----------------|-------------------|-------------------------||


  PM PM PM PM PM PM PM PM                                                      
||--------------------------|-------------------------|-------------------------|
||--------------------------|-------------------------|-------------------------|
||--------------------------|-------------------------|-------------------------|
||--7--7--7--7--7--7--7--7--|--2--4--5-------4--5--0--|-------------------------|
||--5--5--5--5--5--5--5--5--|-----------3-------------|--------------2----------|
||--------------------------|-------------------------|-----0--3b----0----0--2--|


-------------------------|---------------------|-------------------------|
-------------------------|---------------------|-------------------------|
-----------2-------------|---------------------|-------------------------|
--------0--2-------------|---------------------|--2--4--5-------4--5--0--|
-----2-----0-------------|-----2---------------|-----------3-------------|
--3-----------------3br--|-----0---------------|-------------------------|


-------------------------|-------------------------|---------------------|
-------------------------|-------------------------|---------------------|
-------------------------|-----------2-------------|---------------------|
-------------------------|--------0--2-------------|---------------------|
--------------2----------|-----2-----0-------------|-----2---------------|
-----0--3b----0----0--2--|--3-----------------3br--|-----0---------------|


                                                    PH            
----------------------------------|------------------------------|
----------------------------------|------------------------------|
----------16----------14----------|------------------------------|
------17----------17----------17--|--17------17--<>16------------|
--15----------15----------15------|------15----------------------|
----------------------------------|------------------------------|


                                                   PH            
----------------------------------|------------------------------|
----------13----------12----------|------------------------------|
----------------------------------|--14----------<>12------------|
------14----------14----------14--|----------14------------------|
--12----------12----------12------|------12----------------------|
----------------------------------|------------------------------|

----------------------------|---------------------------|
----------------------------|---------------------------|
----------------------------|------7--------------------|
--7--9--10-------9--10------|---------------------------|
------------8-----------10--|---------------------------|
----------------------------|---------8br----5----5--7--|

-------------------------|---------------------|--------------------|
-------------------------|---------------------|--------------------|
-------------------------|---------------------|--------------------|
--------5----------------|---------------------|--3------------3----|
-----7-----5-------------|---------------------|--3-----------------|
--8-----------------8br--|----5----------------|--1-----------------|


----------------------|--------------------|---------------------|
----------------------|--------------------|---------------------|
--4------5------------|--------------------|--4------5-----------|
------------------3-3-|--3------------3----|---------------------|
------------------3-3-|--3-----------------|---------------------|
------------------1-1-|--1-----------------|---------------------|


                                  PM PM     PM PM      
-------------------------|----------------------------|
-------------------------|----------------------------|
-------9-----9--9-----9--|-----9----------------------|
-------9-----9--8-----8--|-----9----------------------|
-------7-----7--7-----7--|-----7--------2~------------|
--0----------------------|--------0--3------0--3--5~--|


                                  PM PM                                
-------------------------|-----------------------|--------------------|
-------------------------|--------------3--------|--------------------|
-------9-----9--9-----9--|-----9--------2--------|--------------------|
-------9-----9--8-----8--|-----9--------0--------|--3------------3----|
-------7-----7--7-----7--|-----7--------0--------|--3-----------------|
--0----------------------|--------3--0-----------|--1-----------------|


----------------------|--------------------|---------------------|
----------------------|--------------------|---------------------|
--4------5------------|--------------------|--4------5-----------|
------------------3-3-|--3------------3----|---------------------|
------------------3-3-|--3-----------------|---------------------|
------------------1-1-|--1-----------------|---------------------|


                                  PM PM     PM PM                          
-------------------------|----------------------------|-------------------|
-------------------------|----------------------------|-------------------|
-------9-----9--9-----9--|-----9----------------------|-------------------|
-------9-----9--8-----8--|-----9----------------------|--5----------------|
-------7-----7--7-----7--|-----7--------2~------------|--5----------------|
--0----------------------|--------0--3------0--3--5~--|--3----------------|


                                  PM PM           PM PM                   
-------------------|------------------------|----------------------------|
-------------------|------------------------|----------------------------|
--8----------------|--5---------------------|----------------------------|
--8----------------|--5---------------------|----------------------------|
--6----------------|--3-----------------3~--|-----------3--4~--3---------|
-------------------|--------------3--6------|-----3--6------------6~--3--|







-------------------|-------------------|-------------------------|
-------------------|-------------------|-------------------------|
-------------------|--8----------------|--5----------------------|
--5----------------|--8----------------|--5----------------------|
--5----------------|--6----------------|--3----3--3--3--3--3--3--|
--3----------------|-------------------|-------------------------|


  PM PM PM PM PM PM PM PM                                                      
--------------------------|-------------------------|-------------------------|
--------------------------|-------------------------|-------------------------|
--------------------------|-------------------------|-------------------------|
--7--7--7--7--7--7--7--7--|--2--4--5-------4--5--0--|-------------------------|
--5--5--5--5--5--5--5--5--|-----------3-------------|--------------2----------|
--------------------------|-------------------------|-----0--3b----0----0--2--|


-------------------------|---------------------|-------------------------|
-------------------------|---------------------|-------------------------|
-----------2-------------|---------------------|-------------------------|
--------0--2-------------|---------------------|--2--4--5-------4--5--0--|
-----2-----0-------------|-----2---------------|-----------3-------------|
--3-----------------3br--|-----0---------------|-------------------------|


-------------------------|-------------------------|---------------------|
-------------------------|-------------------------|---------------------|
-------------------------|-----------2-------------|---------------------|
-------------------------|--------0--2-------------|---------------------|
--------------2----------|-----2-----0-------------|-----2---------------|
-----0--3b----0----0--2--|--3-----------------3br--|-----0---------------|


                                                    PH            
----------------------------------|------------------------------|
----------------------------------|------------------------------|
----------16----------14----------|------------------------------|
------17----------17----------17--|--17------17--<>16------------|
--15----------15----------15------|------15----------------------|
----------------------------------|------------------------------|


                                                    PH            
----------------------------------|------------------------------|
----------13----------12----------|------------------------------|
----------------------------------|--14----------<>12------------|
------14----------14----------14--|----------14------------------|
--12----------12----------12------|------12----------------------|
----------------------------------|------------------------------|

-------------------------|-------------------------|-------------------------|
-------------------------|-------------------------|-------------------------|
-------------------------|-------------------------|-----------2-------------|
--2--4--5-------4--5--0--|-------------------------|--------0--2-------------|
-----------3-------------|--------------2----------|-----2-----0-------------|
-------------------------|-----0--3b----0----0--2--|--3-----------------3br--|


---------------------|-------------------------|-------------------------|
---------------------|-------------------------|-------------------------|
---------------------|-------------------------|-------------------------|
---------------------|--2--4--5-------4--5--0--|-------------------------|
-----2---------------|-----------3-------------|--------------2----------|
-----0---------------|-------------------------|-----0--3b----0----0--2--|


-------------------------|---------------------|-------------------|
-------------------------|---------------------|-------------------|
-----------2-------------|---------------------|-------------------|
--------0--2-------------|---------------------|--5----------------|
-----2-----0-------------|-----2---------------|--5----------------|
--3-----------------3br--|-----0---------------|--3----------------|

-------------------|-------------------|-------------------|-------------------|
-------------------|-------------------|-------------------|-------------------|
--8----------------|--5----------------|--5----------------|-------------------|
--8----------------|--5----------------|--5----------------|--5----------------|
--6----------------|--3----------------|--3----------------|--5----------------|
-------------------|-------------------|-------------------|--3----------------|


-------------------|-------------------|-------------------|
-------------------|-------------------|-------------------|
--8----------------|--5----------------|--7----------------|
--8----------------|--5----------------|--7----------------|
--6----------------|--3----------------|--5----------------|
-------------------|-------------------|-------------------|


                                  PM PM     PM PM      
-------------------------|----------------------------|
-------------------------|----------------------------|
-------9-----9--9-----9--|-----9----------------------|
-------9-----9--8-----8--|-----9----------------------|
-------7-----7--7-----7--|-----7--------2~------------|
--0----------------------|--------0--3------0--3--5~--|


                                  PM PM                               
-------------------------|-----------------------|-------------------|
-------------------------|--------------3--------|-------------------|
-------9-----9--9-----9--|-----9--------2--------|-------------------|
-------9-----9--8-----8--|-----9--------0--------|--5----------------|
-------7-----7--7-----7--|-----7--------0--------|--5----------------|
--0----------------------|--------3--0-----------|--3----------------|


                                  PM PM           PM PM                   
-------------------|------------------------|----------------------------|
-------------------|------------------------|----------------------------|
--8----------------|--5---------------------|----------------------------|
--8----------------|--5---------------------|----------------------------|
--6----------------|--3-----------------3~--|-----------3--4~--3---------|
-------------------|--------------3--6------|-----3--6------------6~--3--|

   
-------------------|-------------------|-------------------------|
-------------------|-------------------|-------------------------|
-------------------|--8----------------|--5----------------------|
--5----------------|--8----------------|--5----------------------|
--5----------------|--6----------------|--3----3--3--3--3--3--3--|
--3----------------|-------------------|-------------------------|


  PM PM PM PM PM PM PM PM                                                      
--------------------------|-------------------------|-------------------------|
--------------------------|-------------------------|-------------------------|
--------------------------|-------------------------|-------------------------|
--7--7--7--7--7--7--7--7--|--2--4--5-------4--5--0--|-------------------------|
--5--5--5--5--5--5--5--5--|-----------3-------------|--------------2----------|
--------------------------|-------------------------|-----0--3b----0----0--2--|

-------------------------|---------------------|-------------------------|
-------------------------|---------------------|-------------------------|
-----------2-------------|---------------------|-------------------------|
--------0--2-------------|---------------------|--2--4--5-------4--5--0--|
-----2-----0-------------|-----2---------------|-----------3-------------|
--3-----------------3br--|-----0---------------|-------------------------|

-------------------------|-------------------------|---------------------||
-------------------------|-------------------------|---------------------||
-------------------------|-----------2-------------|---------------------||
-------------------------|--------0--2-------------|---------------------||
--------------2----------|-----2-----0-------------|-----2---------------||
-----0--3b----0----0--2--|--3-----------------3br--|-----0---------------||

| /-slide up
| \-slide down
| H-hammer-on
| P-pull-off
| B-bend
| R-release
| PH-Pinch Harmonic