background
Alice Cooper Tablature: Roadrats

Roadrats

Words and music by Alice Cooper and Dick Wagner
From the album Lace And Whiskey (1977)
Transcribed by Rory MacKenzie

Intro
----------------|----------------|---------------||:----------------|------3------|
----------------|----------------|---------------||:----5---5\4---5-|--5----------| 
9-9-9-9-9-8-7-5-|--4-3-2---------|---------------||:----------------|-------------|
9-9-9-9-9-8-7-5-|--4-3-2---------|---------------||:----------------|-------------|
7-7-7-7-7-6-5-3-|--2-1-0---------|---------------||:----------------|-------------|

----------------|----------------|---------------||:0---------------|-------------|


----------------|----------------:||-----------------|--------------|-------------|
----------------|----------------:||-----------------|--------------|-------------|
--3^2^0---------|----------------:||9-9--9-9-9-8-7-5-|--4-3-2-------|-------------|
-----------2----|0^2---2---------:||9-9--9-9-9-8-7-5-|--4-3-2-------|-------------|
-------------2--|----------------:||7-7--7-7-7-6-5-3-|--2-1-0-------|-------------|
0---------------|----------------:||-----------------|--------------|-------------|


||:----------------|----------------:||
||:----------------|----------------:||
||:----------------|----------------:||
||:----------------|----------------:||
||:----------------|----------------:||
||:----------------|--0-0-0-3-5-0---:||

                                                                                3x
||:------------------------------------|----------------------------------------:||
||:------------------------------------|----------------------------------------:||
||:------------------------------------|----------------------------------------:||
||:------------------------------------|----------------------------------------:||
||:------------------------------------|----------------------------------------:||
||:------------------------------------|----0---0---0---3---5---0---------------:||
  1       We work this band 'cause they make it rock
           but we're the guys that make  it roll
             We move the drums and amps  and junk                      (2x to End)
  2                 On the road half my  young man's life
                  I spend a lot of time  
              ain't got no bread to show for it
                                                  1._______________
--------------------|------------------------------|----------------|
--------------------|------------------------------|----------------|
--------------------|------------------------------|----------------|
--------------------|------------------------------|----------------|
--------------------|------------------------------|----------------|
0-------------------|------------------------------|--0-0-0-3-5-0---|
  Road rats we're a  pack and the road's our home 

________________________________________________________________________
3-3-3-3-3-2-2-0-|-----------------|3-333-3-3-2-2-2-0--|----------------:||
3-3-3-3-3-3-3-0-|-----------------|3-333-3-3-3-3-3-0--|----------------:|| 
4-4-4-4-4-2-2-0-|-----------------|4-444-4-4-2-2-2-0--|----------------:||
----------------|-----------------|-------------------|----------------:||
----------------|-----------------|-------------------|----------------:||
----------------|--0-0-0-5-3-0----|-------------------|--0-0-0-5-3-0---:||

2._______________
---------------5-|---------------|5---------5--------|0------------------| 
---------------5-|---------------|7---------5--------|0------------------|
---------------6-|---------------|7---------6--------|1------------------|
---------------7-|---------------|7---------7--------|2------------------|
---------------7-|---------------|5---------7--------|2------------------|
---------------5-|---------------|----------5--------|0------------------|
                   We're then men behind the man      We're the backbone

0--------0-------|5--------------|5--------5--------|5--------5---------|
2--------0-------|5--------------|7--------5--------|7--------5---------|
2--------1-------|6--------------|7--------6--------|7--------6---------|
2--------2-------|7--------------|7--------7--------|7--------7---------|
0--------2-------|7--------------|5--------7--------|5--------7---------|
---------0-------|5--------------|---------5--------|---------5---------| 
muscle clan       We do a thousand onenight stands if the stars can make it

5--------5-------|3--------5-----|3--------5--------|0--------0---------|
7--------5-------|3--------7-----|3--------7--------|0--------2---------|
7--------6-------|4--------7-----|4--------7--------|1--------2---------|
7--------7-------|5--------7-----|5--------7--------|2--------2---------|
5--------7-------|5--------5-----|5--------5--------|2--------0---------|
5--------5-------|3--------------|3-----------------|0------------------|
          If the band can shake it           Well if those guys can take it we

5----------------|2--------------| 
7----------------|4--------------| 
7----------------|4--------------|
7----------------|4--------------|
5----------------|2--------------|
-----------------|---------------|
can

||:----------------|------3------|----------------|----------------:||
||:----5---5\4---5-|--5----------|----------------|----------------:||  
||:----------------|-------------|--3^2^0---------|----------------:|| 
||:----------------|-------------|-----------2----|0^2---2---------:||
||:----------------|-------------|-------------2--|----------------:|| 
||:0---------------|-------------|0---------------|----------------:|| 

----------------|--------------|--------------|----------------------|
----------------|--------------|--------------|----------------------|
9-9-9-9-9-8-7-5-|--4-3-2-------|--------------|----------------------|
9-9-9-9-9-8-7-5-|--4-3-2-------|--------------|----------------------|
7-7-7-7-7-6-5-3-|--2-1-0-------|--------------|----------------------|
----------------|--------------|--------------|--0-0-0-5-3-0---------|

3-3-3-3-3-2-2-0-|-----------------|3-333-3-3-2-2-2-0-|----------------
3-3-3-3-3-3-3-0-|-----------------|3-333-3-3-3-3-3-0-|----------------
4-4-4-4-4-2-2-0-|-----------------|4-444-4-4-2-2-2-0-|----------------
----------------|-----------------|------------------|----------------
----------------|-----------------|------------------|----------------
----------------|--0-0-0-5-3-0----|------------------|--0-0-0-5-3-0--- 
                                                            (To Verse 1)

                                  1,3__________________________________
||:-------------|-----------------|------------------|--------3------:||
||:-------------|-----------------|-----5----5\3----5|---5-----------:||
||:-------------|-----------------|------------------|---------------:||
||:-------------|-----------------|------------------|---------------:||
||:-------------|-----------------|------------------|---------------:||
||:0------------|-----------------|0-----------------|---------------:||
   Road rats we're a pack and the roads are home

2._______________________________  4.________________
-----------------|--------------:||------------------| 
-----------------|--------------:||------------------|
---3^2^0---------|--------------:||------------------|
------------2----|0^2---2-------:||------------------|
---------------2-|--------------:||------------------| 
0----------------|--------------:||0-----------------|

----------------|----------------|---------------||:-----------|----------------:||
----------------|----------------|---------------||:-----------|----------------:|| 
9-9-9-9-9-8-7-5-|--4-3-2---------|---------------||:-----------|----------------:||
9-9-9-9-9-8-7-5-|--4-3-2---------|---------------||:-----------|----------------:||
7-7-7-7-7-6-5-3-|--2-1-0---------|---------------||:-----------|----------------:||
----------------|----------------|-0-0-00-5-3-0--||:-----------|-0-0-0-5-3-0----:||