background
Alice Cooper Tablature: Reflected

Reflected

From the album Easy Action
Transcribed by Adam Paloian

Keys
b = bend
r = release
\ = slide up neck 
/ = slide down neck
h = hammer-on
p = pull-off
~ = hold note
w = whammy bar
v = vibrato

Rhythm Guitar (Michael Bruce)
E---------------|
B---------------|
G-------9-x-x-9-| repeat until
D-------9-x-x-9-| Glen comes in
A-------7-x-x-7-|
E-0-0-0---------|
The above part is a big mess, 
just the Em power chord repeated

0:11
Lead Guitar (Glen Buxton)
E---------------------------------------------------|
B---------------------------------------------------|
G---------------------------7h8h9-7h8h9-7h8h9-7h8h9-|
D---------------7-8-9-7-8-9-------------------------|
A-10-9-7-10-9-7-------------------------------------|
E---------------------------------------------------|

Lead Guitar
E-----------------------------------|
B-----------------------------------|
G--------7---------6---------5------|
D-/7~~-7---5~~---7---4~~---7---3~~--|
A-----------------------------------|
E-----------------------------------|

Rhythm Guitar
E-----------------------------------|
B-----------------------------------|
G-2~~-------------------------------|
D-2~~------2~~-------2~~-------2~~--|
A-0~~------x---------x---------x----|
E----------3~~-------2~~-------1~~--|
Repeat the 2 riffs above 2x


“Look upstanding with your head held high”
E---------------------------------|
B---------------------------------|
G---------------------------------|
D---------------------------------|
A-7--7-7--7-7-7-7-7-7-7-7-7-7-7-7…|
E---------------------------------|

“You will be reflected”
E-----------------|
B-----------------|
G-----------------|
D-----------------|
A-5-5-5-5-5-5-5-5…|
E-----------------|

Lead Guitar
E---------------------------------|
B---------------------------------|
G---------------7b9~9r7p5---------|
D-------------------------7--7~~--|
A----------------------------7~~--|
E---------------------------------|

Rhythm Guitar
E---------------------------------|
B---------------------------------|
G---------------------------------|
D-7~~-7~~-7-5---------------------|
A-7~~-7~~-7-5---------------------|
E-5~~-5~~-5-3---------------------|

“You look outstanding with your eyes in disguise” 
E---------------------------------|
B---------------------------------|
G---------------------------------|
D---------------------------------|
A-7--7-7--7-7-7-7-7-7-7-7-7-7-7-7…|
E---------------------------------|

“Just beyond your mask-qes”
E-----------------|
B-----------------|
G-----------------|
D-----------------|
A-5-5-5-5-5-5-5-5…|
E-----------------|

Lead Guitar
E---------------------------------|
B---------------------------------|
G------------------7b9~9r7p5------|
D----------------------------7----|
A---------------------------------|
E---------------------------------|

Rhythm Guitar
E---------------------------------|
B---------------------------------|
G---------------------------------|
D-5~-5~-5~-5-5--7~~~--------------|
A-5~-5~-5~-5-5--7~~~---------0~~--|
E-3~-3~-3~-3-3--5~~~--------------|

“Holy, Hollywood (he), it's devine”
Rhythm Guitar
E---------------------------|
B---------------------------|
G---------6--7--6-----------| play along with lyrics
D----7--9----------9-7--9~~-|
A-9-------------------------|
E---------------------------|

Lead Guitar
E-----------------------------------7--------------------7\--|
B----------------------------7h9h10---10p9p7---7--7h9h10-----|
G-10r9p7---7-----------7h8h9-----------------9---------------|
D--------9----7--8--9----------------------------------------|
A------------------------------------------------------------|
E------------------------------------------------------------|

“I'm surely glad, I'm surely all the time”
Rhythm Guitar
E---------------------------|
B---------------------------|
G---------6--7--6-----------| play along with lyrics
D----7--9----------9-7--9~~-|
A-9-------------------------|
E---------------------------|

Lead Guitar
B-16r14--12----------12------------------------------------------------|
G-----------12h14p12----15p14p12---------------------------------------|
D--------------------------------14~~-14b15~15~16~r14p12----12--12-----|
A--------------------------------------------------------14--------14\-|
E----------------------------------------------------------------------|
E----------------------------------------------------------------------|

“And even though I'm, you will always hear”
Rhythm Guitar
E-----------------------------------|
B-----------------------------------|
G-4-6--4-6--11~~-9--7--9--7~~--5~~--| play along with lyrics
D-----------------------------------|
A-----------------------------------|
E-----------------------------------|

1:16
Lead Guitar (in the background)
E-----------------|
B-----------------|
G-----------------|
D-10~~--9~~-7~~~--|
A-----------------|
E-----------------|

Solo 1
Lead Guitar
E-----------------------------------------------------------------------|
B------------------------------------------------------13-12----13-12---|
G------------------------------11-12--11--14-12-11-14--------14-------14|
D-7~~-9-9-9-9--7----7--7/11h14------------------------------------------|
A----------------10-----------------------------------------------------|
E-----------------------------------------------------------------------|

E------------------------------------------------------------15-17-15-16|
B-----13p12----13p12-------13--15/16--17--15-16-17-17/20--17------------|
G-----------------------14----------------------------------------------|
D-14--------14-------14-------------------------------------------------|
A-----------------------------------------------------------------------|
E-----------------------------------------------------------------------|

E-17--17b19~~~19r17-|
B-------------------|
G-------------------|
D-------------------|
A-------------------|
E-------------------|

“Very rarely worry upmost constantly”
E---------------------------------|
B---------------------------------|
G---------------------------------|
D---------------------------------|
A-7--7-7--7-7-7-7-7-7-7-7-7-7-7-7…|
E---------------------------------|

“Could you be receptive”
E-----------------|
B-----------------|
G-----------------|
D-----------------|
A-5-5-5-5-5-5-5-5…|
E-----------------|

Lead Guitar
E---------------------------------|
B---------------------------------|
G---------------7b9~9r7p5---------|
D-------------------------7--7~~--|
A----------------------------7~~--|
E---------------------------------|

Rhythm Guitar
E---------------------------------|
B---------------------------------|
G---------------------------------|
D-7~~-7~~-7-5---------------------|
A-7~~-7~~-7-5---------------------|
E-5~~-5~~-5-3---------------------|

“Our life's outstanding in a shower please” 
E---------------------------------|
B---------------------------------|
G---------------------------------|
D---------------------------------|
A-7--7-7--7-7-7-7-7-7-7-7-7-7-7-7…|
E---------------------------------|

“Wet my skins a plenty”
E-----------------|
B-----------------|
G-----------------|
D-----------------|
A-5-5-5-5-5-5-5-5…|
E-----------------|

Lead Guitar
E-------------------------------|
B-------------------------------|
G------------------7b9~9r7p5----|
D----------------------------7--|
A-------------------------------|
E-------------------------------|

Rhythm Guitar
E-------------------------------|
B-------------------------------|
G-------------------------------|
D-5~-5~-5~-5-5--7~~~------------|
A-5~-5~-5~-5-5--7~~~------------|
E-3~-3~-3~-3-3--5~~~------------|

"Baby what a day I love our town”
Rhythm Guitar
E---------------------------|
B---------------------------|
G---------6--7--6-----------| play along with lyrics
D----7--9----------9-7--9~~-|
A-9-------------------------|
E---------------------------|

Lead Guitar
E---------------------7------------------7--10p9p7----7-7h9-10-10~/12-|
B-----------------7h9---10p9p7-7--7h9h10-----------10-----------------|
G-9-10r9p7-7--7h9-----------------------------------------------------|
D---------------------------------------------------------------------|
A---------------------------------------------------------------------|
E---------------------------------------------------------------------|

“I'm surely glad I'm surely all around”
Rhythm Guitar
E---------------------------|
B---------------------------|
G---------6--7--6-----------| play along with lyrics
D----7--9----------9-7--9~~-|
A-9-------------------------|
E---------------------------|

Lead Guitar
E-15p14p12----12-----------------------12----------------------------|
B----------15-----15p14p12-12-12h14h15-----15p14p12------------------|
G---------------------------------------------------14~~-14b16-14b16-|
D--------------------------------------------------------------------|
A--------------------------------------------------------------------|
E--------------------------------------------------------------------|

E------------------|
B------------------|
G-14b16-14b16v~~~--|
D------------------|
A------------------|
E------------------|

“And even since I knew it all so clear”
Rhythm Guitar
E-----------------------------------|
B-----------------------------------|
G-4-6--4-6--11~~-9--7--9--7~~--5~~--| play along with lyrics
D-----------------------------------|
A-----------------------------------|
E-----------------------------------|

Solo 2
Lead Guitar
E--------------------------|
B--------------------------|
G--------------7b9~9r7p5---| 7x
D-7~~-7~~-7p5------------7-|
A-7~~-7~~-7p5--------------|
E--------------------------|

E--------------------|
B--------------------|
G--------------------|
D-7~~-7~~-7~~~-------|
A-7~~-7~~-7~~~---0~~-|
E--------------------|

“You will be reflected, you will be reflected, you will be reflected
You will be reflected, you will be reflected…”
Rhythm Guitar
E---------------------------------|
B---------------------------------|
G---------------------------------| 3x
D-7-7-7-7-7-7-7-7-5-5-5-5-5-5-5-5-|
A-7-7-7-7-7-7-7-7-5-5-5-5-5-5-5-5-|
E-5-5-5-5-5-5-5-5-3-3-3-3-3-3-3-3-|
On the 3rd time don’t time don’t play the G5 (5-5-3 chord)
The chords change when the vocalist changes from Mike to Alice

“Reflected”
E--------|
B--------|
G-9~~~---|
D-9~~~---|
A-7~~~---|
E--------|

Lead Guitar
E---------------|
B---------------|
G-9--9--9--9--9…| note is repeated
D---------------| during fade in and out
A---------------| of “…eeeed…”
E---------------|
You can do whatever you want with the above repeated note,
to make it more interesting, I prefer vibratos.