background
Alice Cooper Tablature: Raped And Freezin'

Raped And Freezin'

From the album Billion Dollar Babies
Transcribed by DoteStudios

Keys
b = bend
r = release
\ = slide up neck 
/ = slide down neck
h = hammer-on
p = pull-off
~ = hold note
w = whammy bar
v = vibrato
*another thing is that in the solo I wrote 9b10~~10, which means bend the 9th fret till it sounds like the 10th, then while it’s in the bend strum the string again

“Finally got a ride, some old broad down from Santa Fe.
She was a real go-getter.
She drawled so sweetly, "I think, child, that things'll get better."
Lead and Rhythm Guitar
E---------------------------------------------|
B---------------------------------------------|
G-7----------7----------7----------7----------|
D-7--3-5--7--7--3-5--7--7--3-5--7--7--3-5--6--|
A-5--3-5--7--5--3-5--7--5--3-5--7--5--3-5--6--|
E----1-3--5-----1-3--5-----1-3--5-----1-3--4--|

“We pulled off the highway, night black as a widow.
"Yes, I read the Bible," she said, "I wanna know of you."
Lead Guitar (Glen Buxton)
E---------------------------------------------------------------------|
B-----------------5------------------------------8--------------------|
G-7--5------------7b9~~---7--5-------------7-8-9---9-8-7---------7--5-|
D-------7-5-7--7----------------7-5-7--7---^-------------7-10-7-------|
A------------------------------------------|--------------------------|
E------------------------------------------|--------------------------|
			            (play the riff above very fast)

E--------------------------------------7--|
B---------------------------7--------8----|
G-------------------5-----7---7----7------|
D-7-5-7--7------------7/9--------9--------|
A-----------5-5-5/7-----------------------|
E-----------------------------------------|

Rhythm Guitar (Michael Bruce)
E-------------------------|
B-------------------------|
G--------------------5----| 3x
D-7--7-7~~7------------7--|
A-7--7-7~~7--5-5-5/7------|
E-5--5-5~~5---------------|


“Hey, I think I've got a live one
Hey, I think I found a live one
Hey, Hey, I think I've got a live one
Yeah, Yeah, I think I've got a live one”
Lead and Rhythm Guitar
E-------x-5-3--2--2--3-----|
B-7--7--x-3-3--3--3--3-----|
G-7--7---------2--2--0--2--| 4x
D-7--7---------0--0--0--2--|
A-5--5---------------2--0--|
E--------------------3-----|

“Oh, 
Ok boys,
Felt like I was hit by a diesel or a greyhound bus.
She was no baby-sitter.
"Get up, sugar, never thought you'd be a quitter."
Lead and Rhythm Guitar
E---------------------------------------------------------------------|
B---------------------------------------------------------------------|
G-7-7-7------------7-7-7------------7-7-7------------7-7-7------------|
D-7-7-7--3-5--5-7--7-7-7--3-5--5-7--7-7-7--3-5—-5-7--7-7-7--3-5--5-7--|
A-5-5-5--3-5--5-7--5-5-5--3-5--5-7--5-5-5--3-5--5-7--5-5-5--3-5--5-7--|
E--------1-3--3-5---------1-3--3-5---------1-3--3-5---------1-3--3-5--|

E----------------------------------|
B----------------------------------|
G-7-7-7------------7-7-7-----------|
D-7-7-7--3-5--5-7--7-7-7--3-5--6---|
A-5-5-5--3-5--5-7--5-5-5--3-5--6---|
E--------1-3--3-5---------1-3--4---|

“I opened the back door, she was greedy.
I ran through the desert, she was chasin'.
No time to get dressed, so I was naked, stranded in Chihuahua.”
Lead Guitar
E---------------------------------------------------------------------|
B---------------------------------------------------------------------|
G-7--5--------------------5----7--5-------------------5----7--5-------|
D-------7-5-7--7------------7--------7-5-7--7-----------7--------7-5-7|
A-----------------5-5-5/7---------------------5-5-5/7-----------------|
E---------------------------------------------------------------------|

E-------------------------------7--|
B--------------------7--------8----|
G------------5-----7---7----7------|
D-7------------7/9--------9--------|
A----5-5-5/7-----------------------|
E----------------------------------|

Rhythm Guitar
E-------------------------|
B-------------------------|
G--------------------5----| 3x
D-7--7-7~~7------------7--|
A-7--7-7~~7--5-5-5/7------|
E-5--5-5~~5---------------| 
“Hey, I think I've got a live one
Hey, Yeah I got a live one
Hey, hey, hey, I think I've got a live one
Hey, oh, I've got a live one.”
Lead and Rhythm Guitar
E-------x-5-3--2--2--3-----|
B-7--7--x-3-3--3--3--3-----|
G-7--7---------2--2--0--2--| 4x
D-7--7---------0--0--0--2--|
A-5--5---------------2--0--|
E--------------------3-----|

Solo 1
Lead Guitar (Glen Buxton’s/Lead Guitar’s solo)
E---------------------------------------------------------------------|
B----------------7-10-7------------------------------------10b12-10b12|
G---------7--9-7--------7-9--7---------------10--9--9p7---------------|
D-----7-9----------------------9--7------7-9------------9-------------|
A-7-9--------------------------------7-9------------------------------|
E---------------------------------------------------------------------|

E----7------------------------------------------------------|
B-10---10-7--10---------------------------------------------|
G---------------9-7-9-7----------7----7--10--10-9--7---9----|
D-----------------------9------7---9-----------------9---9\-|
A--------------------------7-9------------------------------|
E-----------------------------------------------------------|

Rhythm Guitar
E---------------------------------------------------------------------|
B---------------------------------------------------------------------|
G-7-7-7------------7-7-7------------7-7-7------------7-7-7------------|
D-7-7-7--3-5--5-7--7-7-7--3-5--5-7--7-7-7--3-5—-5-7--7-7-7--3-5--5-7--|
A-5-5-5--3-5--5-7--5-5-5--3-5--5-7--5-5-5--3-5--5-7--5-5-5--3-5--5-7--|
E--------1-3--3-5---------1-3--3-5---------1-3--3-5---------1-3--3-5--|

E----------------------------------|
B----------------------------------|
G-7-7-7------------7-7-7-----------|
D-7-7-7--3-5--5-7--7-7-7--3-5--6---|
A-5-5-5--3-5--5-7--5-5-5--3-5--6---|
E--------1-3--3-5---------1-3--4---|

Solo 2 (Michael Bruce’s/Rhythm Guitar’s solo)
Lead Guitar
E-------------------------|
B-------------------------|
G--------------------5----| 3x
D-7--7-7~~7------------7--|
A-7--7-7~~7--5-5-5/7------|
E-5--5-5~~5---------------|


Rhythm Guitar
E----13b14--13-12-11--------------------------------------------------|
B----------------------------------------------------7----------------|
G-14------------------12-15-14--11-14-12--9-12-11--7------------------|
D------------------------------------------------------9b11-----------|
A------------------------------------------------------------12-11-10-|
E---------------------------------------------------------------------|

E-------------------22--20--17-15-----------------------------------|
B---------------------------------17-15-13--------------------------|
G-------------14-14-------------------------14-12-------------------|
D/14-14-17-17--------------------------------------------12-14b15~~~|
A--------------------------------------------------12h14------------|
E-------------------------------------------------------------------|

E-------------------------------|
B-------------------------------|
G-------------------------------|
D~15r14p12h14--12---------------|
A-----------------14--14p12-----|
E---------------------------14--|

“Hey, I think I've got a live one
Hey, Yeah I got a live one
Hey, hey, hey, I think I've got a live one
Hey, oh, I've got a live one.”
Lead and Rhythm Guitar
E-------x-5-3--2--2--3-----|
B-7--7--x-3-3--3--3--3-----|
G-7--7---------2--2--0--2--| 4x
D-7--7---------0--0--0--2--|
A-5--5---------------2--0--|
E--------------------3-----|

“Alone, raped and freezin’
Alone, cold and sneezin’
Alone, down in Mexico
Alone”
E-------------------------|
B-------------------------|
G-------9~~~--------------|
D-9~~~--9~~~--5~~~--7~~~--|
A-9~~~--7~~~--5~~~--7~~~--|
E-7~~~--------3~~~--5~~~--|

“Yap-pa yap-pa yap-pa…”
E-0h2-2----3-3--------|
B-3---3-2--3-3--------|
G-0h2-2-2--0-0--2-2-2-| 7x
D-0---0-0--0-0--2-2-2-|
A----------2-2--0-0-0-|
E----------3-3--------|
  

E-0h2-2-3----|
B-3---3-3----|
G-0h2-2-2-2--| 4x
D-0---0-0-2--|
A---------0--|
E------------|