background
Alice Cooper Tablature: Nobody Likes Me (Demo)

Nobody Likes Me (Demo)

Words and music by Alice Cooper (group)
From the album Life And Crimes Of Alice Cooper
Transcribed by Adam Paloian

b = bend
r = release
\ = slide up neck 
/ = slide down neck
h = hammer-on
p = pull-off
~ = hold note
t = trill (multiple, fast hammer-ons)

Guitar 1
E----------------------------------------------------------------- |
B-------------------17b19~~~~~-17--15--17~~b19~~~19r17--15--14~~~~-|
G------------------------------------------------------------------|
D------------------------------------------------------------------|
A------------------------------------------------------------------|
E------------------------------------------------------------------|

Guitar 2
E------------------------------------------------------------------|
B----------3-----------------3-------------------------------------|
G-------4-----4-----------4-----4--------------4-----------------3-|
D----4-----------4-----4-----------4--------5-----5-----------4----|
A-2-----------------0--------------------5-----------5-----4-------|
E-------------------------------------3-----------------2----------|

Guitar 1
E-------17b19~~---17b19~~---17b19--19--17-----------------------------|
B-----------------------------------------19-17-15-17-17b19~~~~r19----|
G---------------------------------------------------------------------|
D---------------------------------------------------------------------|
A---------------------------------------------------------------------|
E---------------------------------------------------------------------|

Guitar 2
E-------------------2---------------------2-0--------------------3----|
B----------------3----3----------------3------3---------------------3-|
G-------------4---------4-----------4-----------4-------------4-------|
D-4--------4---------------4-----4----------------4--------5----------|
A----4--2---------------------0-------------------------5-------------|
E----------------------------------------------------3----------------|







Guitar 3
E-------2~~~~-----------------2~~~~------------------3~~~~------------|
B-------3~~~~-----------------3~~~~------------------3~~~~------------|
G-------4~~~~-----------------4~~~~------------------4~~~~------------|
D-------4~~~~-----------------4~~~~------------------5~~~~------------|
A-------2~~~~-----------------0~~~~------------------5~~~~------------|
E----------------------------------------------------3~~~~------------|

Guitar 1
E-------------------------|
B-15-14~~~~---------------|
G-------------------------|
D-------------------------|
A-------------------------|
E-------------------------|

Guitar 2
E----------------2--------|
B-------------------2-----|
G-4-----------3--------3--|
D----------4--------------|
A-------4-----------------|
E----2--------------------|

Guitar 3
E----2~~~~----------------|
B----2~~~~----------------|
G----3~~~~----------------|
D----4~~~~----------------|
A----4~~~~----------------|
E----2~~~~----------------|

“Nobody likes me
It's all my fault
Nobody likes me
Nobody likes me”
E---------------------------------------------------------------------|
B-------------------------3--------2--------------------------3-------|
G-------4--------4-----4--------3-----------4--------4-----4-----4--3~|
D----4--------4-----5--------4-----------4--------4-----5--------5--4~|
A-2--------0--------------------------2--------0-----------------5--4~|
E----------------------------------------------------------------3--2~|

“Oh yes we all like you
We like you a lot
Yes we all like you
Yes we all like you
E--------------------------------------------------------|
B-3--3---3--3------------------3--3---3--3---------------|
G-4--4---4--4---4--4---3--3----4--4---4--4---4--4---3~~--|
D-4--4---4--4---5--5---4--4----4--4---4--4---5--5---4~~--|
A-2--2---0--0---5--5---4--4----2--2---0--0---5--5---4~~--|
E---------------3--3---2--2------------------3--3---2~~--|




“I never get a letter
We have no time
Never ever get a call from you
We have no dime”
E---------------------------------|
B-------------------------3-------|
G-------4--------4-----4-----3~~--| 2x
D----4--------4-----5--------4~~--|
A-2--------0-----------------4~~--|
E----------------------------2~~--|

“Oh yes you do
Oh no we don’t”
E---------|
B---------|
G---------| 4x
D-4-4-4-4-|
A-4-4-4-4-|
E-2-2-2-2-|

“Yes! No! Yes! No! (etc.)”
E------|
B------|
G------| repeat this chord
D-4----| every time they say “No!”
A-4----|
E-2----|

“Yeeeeeeeeees”
E-------------------------|
B-------------------------|
G-11-11-11-11-11-11-11-11-|
D-11-11-11-11-11-11-11-11-|
A--9--9--9--9--9--9--9--9-|
E-------------------------|

1:34 (Italian styled solo)
Accordion (I don’t know what instrument it is):
E------------------------------------------|
B------------------------------------------|
G---4-4---4-4---4-4---4-4---4-4---4-4--3-3-|
D------------------------------------------|
A-2-----2-----2-----2-----2-----2----------|
E------------------------------------------|

Guitar 1
E----------------------------------------|
B----------2------------2--5-3-2---------|
G--------3------------3----------4-4--3--| 2x
D------4------------4--------------------|
A----4------------4----------------------|
E-2------------2-------------------------|





E---------------------------------------------------------------------|
B-3~~-2h3h5p3p2---3~~-2h3h5p3p2---3~~-2h3h5p3p2--2~~--3~~--2~~--3~~---|
G---------------4---------------4-------------------------------------|
D---------------------------------------------------------------------|
A---------------------------------------------------------------------|
E---------------------------------------------------------------------|

E-------------------------14-15-14-15-14-15-14-15-14-15-14-15-14-…|
B-2--3--2--3--2--3--2--3------------------------------------------|
G-----------------------------------------------------------------|
D-----------------------------------------------------------------|
A-----------------------------------------------------------------|
E-----------------------------------------------------------------|

“Never call, never write
Yes we do always try
Make me cry all the night
Sorry we made you cry”

“Make me mad, Make me sad
Tell me true, what can I do?
Way too late can't cant make up
All the late has built up”
E-------------------------------------|
B-------------------------3--------2--|
G-------4--------4-----4--------3-----| 2x
D----4--------4-----5--------4--------|
A-2--------0--------------------------|
E-------------------------------------|

E--------------------------------------------------------------|
B-3--2-----2-----------------------2---3-2---2---------------2-|
G-------4-----4--3--4--3--------3----------4---4-3-4-3-----3---|
D-------------------------5--4-------------------------5-4-----|
A--------------------------------------------------------------|
E--------------------------------------------------------------|

“Ha ha ha ha ha ha ha ha ha”

E-2-2-2-2-2--|
B-2-2-2-2-2--|
G-3-3-3-3-3--| tremolo this
D-4-4-4-4-4--| chord
A-4-4-4-4-4--|
E-2-2-2-2-2…-|

“All right we all hate you
We hate you a lot
We hate all your family
We hate your dog…”
Guitar 1
E-------------------------------------|
B-------------------------3--------2--|
G-------4--------4-----4--------3-----| 2x
D----4--------4-----5--------4--------|
A-2--------0--------------------------|
E-------------------------------------|
Guitar 2
E-------------------------------------|
B-3---3----3---3----------------------|
G-4---4----4---4----4---4----3---3----| 2x
D-4---4----4---4----5---5----4---4----|
A-2---2----0---0----5---5----4---4----|
E-------------------3---3----2---2----|

“Spot”
Guitar 2
E--------------|
B--------------|
G--------------|
D-4-5-4-2-4~~--|
A-4-5-4-2-4~~--|
E-2-3-2-0-2~~--|

Guitar 1
E--------------|
B--------------|
G-13h14h15~~---|
D--------------|
A--------------|
E--------------|

“Even Spot?”

“Yes!!!”
E--------------|
B--------------|
G-11-11-11-11--| tremolo this
D-11-11-11-11--| chord
A--9--9--9--9…-|
E--------------|

(weird noises)
0:11
E-------|
B-2t5…--|
G-------|
D-------|
A-------|
E-------|