background
Alice Cooper Tablature: My Stars

My Stars

From the album School's Out
Transcribed by DoteStudios

Keys
b = bend
r = release
/ = slide down the neck
\ = slide up the neck
h = hammer-on
p = pull-off
~ = hold the note

Guitar 2 (Michael Bruce)
E-----------------------|
B-----------------------|
G-----------------------| 14x
D-----7--7--7--------5--| 
A--------------5-6-7----|
E-5---------------------|

At 0:11 lead guitar (Glen) comes in while the rhythm (Mike) continues.
Guitar 1 (Glen Buxton)
E-----------------------------------------15b17~~17r15-12t15--|
B----------15b17~~17r15-13------------------------------------|
G-------12------------------14---------12---------------------|
D-12h14--------------------------12h14------------------------|
A-------------------------------------------------------------|
E-------------------------------------------------------------|

E---------------------------------------------15b17~~17r15-12-15-12t15|
B-15b17~~17r15-13-15-13-15-13-----------------------------------------|
G-----------------------------14--------12h14-------------------------|
D---------------------------------12h14-------------------------------|
A---------------------------------------------------------------------|
E---------------------------------------------------------------------|

E---------------------------------------------------------------------|
B-15b17~~17r15-13-15-13-----15b17~~17r15-13-15-13-----15b17~~17r15-13-|
G-----------------------14------------------------14------------------|
D---------------------------------------------------------------------|
A---------------------------------------------------------------------|
E---------------------------------------------------------------------|

E---------------------15b17~~17r15-12-15-12-----17b19---|
B-15-13-15b17r15--13------------------------15----------|
G-------------------------------------------------------|
D-------------------------------------------------------|
A-------------------------------------------------------|
E-------------------------------------------------------|



Guitar 2
E-----------------------|
B-----------------------|
G-----------------------| 12x
D-----7--7--7--------5--| 
A--------------5-6-7----|
E-5---------------------|

Guitar 3 (Mick Mashbir)
E---------------------------|
B---------------------------|
G-------7~~~--10~~~--14~~~--| 2x
D-7~~~--7~~~--10~~~--14~~~--|
A-7~~~--5~~~---8~~~--12~~~--|
E-5~~~----------------------|

Guitars 2 and 3
“My stars, so far, no one’s callin’ me home
Space brain, vagabond, living on my own”
E------------------------------------------------------------------|
B------------------------------------------------------------------|
G-9--9--9-9-9\--5--5--5-5-5\--7--7--7-7-7\-------------------------| 3x
D-9--9--9-9-9\--5--5--5-5-5\--7--7--7-7-7\---3--3/5--7--9--10--12--|
A-7--7--7-7-7\--3--3--3-3-3\--5--5--5-5-5\---3--3/5--7--9--10--12--|
E--------------------------------------------1--1/3--5--7---8--10--|

Guitars 1 and 2
“Come all ye faithful, you know all you people should come to me
I’ll make your arms work and I’ll make your legs I’ll make you see”
E-12-10----10----------------------------------/14-------/19------|
B-------13----13-12-13-12-10-12-10-----------------12--------17---|
G----------------------------------12-10-12-9---------------------| 2x
D-----------------------------------------------------------------|
A-----------------------------------------------------------------|
E-----------------------------------------------------------------|

Guitars 1 and 2
“Ladada dadada dadada dadada da da dum”
E-12-10----10-----------------------------------12-----12-----|
B-------13----13-12-13-12-10-12-10--------------15b17--15b17--|
G----------------------------------12-10-12-9-----------------|
D-------------------------------------------------------------|
A-------------------------------------------------------------|
E-------------------------------------------------------------|

During the solo:
Guitar 2
E----------------------------------------------|
B----------------------------------------------|
G----------------------------------------------| 2x
D---------------------0h2----------------------|
A-----5p3p0-5-5-3-5-3----------5p3p0-----------|
E-5-5----------------------5-5--------1--3--5--|


Guitar 1
“Well I swear by the air, I’ll be made to breathe
You'll pay very dear for this banishing deed
The power alone stored in my little hand
Could melt the Eiffel Tower
Turn the Sphinx into sand”
E-15b17~~~17r15~p12-------|
B-------------------13----|
G----------------------14-| 9x
D-------------------------|
A-------------------------|
E-------------------------|

Guitars 2 and 3
E----------------------------------------------|
B----------------------------------------------|
G----------------------------------------------| 5x
D---------------------0h2----------------------|
A-----5p3p0-5-5-3-5-3----------5p3p0-----------|
E-5-5----------------------5-5--------1--3--5--|

Guitar 1
E-15b17~~17r15p12------------------------------------------17b19~~-|
B-----------------15-17b19~~19r17p15-13-15b17~~17r15p13------------|
G-------------------------------------------------------14---------|
D------------------------------------------------------------------|
A------------------------------------------------------------------|
E------------------------------------------------------------------|

E-19r17--17~~-17p15------------------------------------------17b19~~~-|
B-------------------17-17b19~~19r17p15-13-15b17~~17r15p13-------------|
G---------------------------------------------------------14----------|
D---------------------------------------------------------------------|
A---------------------------------------------------------------------|
E---------------------------------------------------------------------|

Guitar 2
E-----------------------|
B-----------------------|
G-----------------------| 8x
D-----7--7--7--------5--| 
A--------------5-6-7----|
E-5---------------------|

Guitars 2 and 3
“Oh no, thar she blows, spreadin’ crazy news”
E---------------------------------------------------------------------|
B---------------------------------------------------------------------|
G-9--9--9-9-9\-----------5--5--5-5-5\------------7--7--7-7-7\---------|
D-9--9--9-9-9\-----------5--5--5-5-5\------------7--7--7-7-7\---------|
A-7--7--7-7-7\-----------3--3--3-3-3\------------5--5--5-5-5\---------|
E---------------------------------------------------------------------|


Guitar 1
E---------------------------------------------------------------------|
B---------------------------------------------------------------------|
G---------------9--9--9/--------------5--5--5/7---------------7--7--7/|
D---------------------------------------------------------------------|
A---------------------------------------------------------------------|
E---------------------------------------------------------------------|

Guitars 2 and 3
E-----------------------|
B-----------------------|
G-----------------------|
D-3--3/5--7--9--10--12--|
A-3--3/5--7--9--10--12--|
E-1--1/3--5--7---8--10--|

Guitars 2 and 3
“All night, cannonball, loves to light the fuse”
E---------------------------------------------------------------------|
B---------------------------------------------------------------------|
G-9--9--9-9-9\-----------5--5--5-5-5\--------------7--7--7-7-7\-------|
D-9--9--9-9-9\-----------5--5--5-5-5\--------------7--7--7-7-7\-------|
A-7--7--7-7-7\-----------3--3--3-3-3\--------------5--5--5-5-5\-------|
E---------------------------------------------------------------------|

Guitar 1
E---------------------------------------------------------------------|
B---------------------------------------------------------------------|
G---------------9--9-9/-----------------------------------------7--7--|
D---------------9--9-9/----------------------------------------------7|
A---------------------------------------7-8--8-9h10-------------------|
E-------------------------------------8-------------------------------|

Guitars 2 and 3
E-----------------------|
B-----------------------|
G-----------------------|
D-3--3/5--7--9--10--12--|
A-3--3/5--7--9--10--12--|
E-1--1/3--5--7---8--10--|

Guitars 1 and 2
“And everyone blows up and nobody grows up to fill Dad's shoes
But that doesn't matter cus no little boys really wanted to”
E-12-10----10----------------------------------/14-------/19------|
B-------13----13-12-13-12-10-12-10-----------------12--------17---|
G----------------------------------12-10-12-9---------------------| 2x
D-----------------------------------------------------------------|
A-----------------------------------------------------------------|
E-----------------------------------------------------------------|


Guitars 1 and 2
"Ladada dadada dadada dadada da da dum”
E-12-10----10-----------------------------------12-----12-----|
B-------13----13-12-13-12-10-12-10--------------15b17--15b17--|
G----------------------------------12-10-12-9-----------------|
D-------------------------------------------------------------|
A-------------------------------------------------------------|
E-------------------------------------------------------------|

After the second solo:
Guitar 1
“I stared at the squall line
I stared at the fault line
I see a funnel black there
I think I see a crack there
Landscapes alive
And it's movin my feet
All I need's a Holocaust
To make my day complete”
E-15b17~~~17r15~p12-------|
B-------------------13----|
G----------------------14-| 9x
D-------------------------|
A-------------------------|
E-------------------------|

Guitars 2 and 3
E----------------------------------------------|
B----------------------------------------------|
G----------------------------------------------| 5x
D---------------------0h2----------------------|
A-----5p3p0-5-5-3-5-3----------5p3p0-----------|
E-5-5----------------------5-5--------1--3--5--|

Outro:
Guitar 2
E-----------------------|
B-----------------------|
G-----------------------|
D-----7--7--7--------5--| 
A--------------5-6-7----|
E-5---------------------|

Towards the end:
Guitar 1
E---------------------|
B---------------------|
G-----------6-6h7p6---|
D-7--5--7-------------|
A---------------------|
E---------------------|


Guitar 2
E-----------------------|
B-----------------------|
G-----------------------|
D-----7--7--7--------5--| 
A--------------5-6-7----|
E-5---------------------|

As the song fades out play:
Guitar 1
E-------17-------17-------17-|
B-20b22----20b22----20b22----|
G----------------------------| repeat
D----------------------------|
A----------------------------|
E----------------------------|