background
Alice Cooper Tablature: Mary Ann

Mary Ann

From the album Billion Dollar Babies
Transcribed by DoteStudios

“Mary-Ann, I'm really crazy
about you, deed I am
I just can't live without you, Mary-Ann
Mary-Ann”
E-------------------------------------------------------------------|
B---4----------4-----------------------------------7-5--------------|
G-6----4---6-6---6-4------------------------------------6---4-6-----|
D--------------------6----4-4-6---------4-5-4-----------------------|
A----------------------7--------7---7-7-------7-4----------------7--|
E-------------------------------------------------------------------|

“Mary-Ann”

“My life was built around you
Stars and sand, your eyes were
pools of laughter, Mary-Ann
I thought you were my man”
E---------------------------------------------------------------------|
B------4----------------------------------7-5-------------------------|
G--6-6---6-4-----------------------------------6---4-4-------4--------|
D------------6----4--6---------4-5-4---------------------4-6----6-----|
A--------------7-------7---7-7-------7-4---------------7-----------7--|
E---------------------------------------------------------------------|

Piano Solo:
E-------------------------------------------------------------------|
B----9------------9---------------------------------------12-10-----|
G-11----9---11-11---11-9----------------------------------------11--|
D------------------------11-----9--11---------9-10--9---------------|
A---------------------------12--------12---12---------12------------|
E-------------------------------------------------------------------|

E-------------------------------------------------------------------|
B-------9-----------9-------------------------------------12-10-----|
G-11-11---9---11-11---11-9--------------------------------------11--|
D--------------------------11-----9--11--------9-10--9--------------|
A-----------------------------12--------12--12---------12-----------|
E-------------------------------------------------------------------|

E-------------------------------------------------------------------|
B----9------------9---------------------------------------12-10-----|
G-11----9---11-11---11-9----------------------------------------11--|
D------------------------11-----9--11-----------9-10-9--------------|
A---------------------------12--------12---12-12-------12-----------|
E-------------------------------------------------------------------|

E---------------------------------------------------------------------|
B-------9-------------9---------------------------------------12-10---|
G-11-11---9--11-11-11---11-9----------------------------------------11|
D----------------------------11-----9--11-----------9-10--9-----------|
A-------------------------------12--------12--12-12---------12--------|
E---------------------------------------------------------------------|