background
Alice Cooper Tablature: The Man With The Golden Gun

The Man With The Golden Gun

Words and music by Michael Bruce and Alice Cooper
From the album Muscle Of Love (1973)
Transcribed by ???

Alice's James Bond epic, submitted to United Artists for the Man with the
Golden Gun soundtrack but not used. Alice was reportedly crushed upon hearing
news of the song's rejection.


   Intro (play twice)
E-|---------------------------------------------------------------------------|
B-|---------------------------------------------------------------------------|
G-|---------------------------------------------------------------------------|
D-|--5--7--8--(8)---11--10----8--5---8--5-------------------------------------|
A-|--5--7--8--(8)---11--10----8--5---8--5-------------------------------------|
E-|---------------------------------------------------------------------------|


  Fills (other guitar in parentheses)
    0:27 in                 0:51 in                           "But you'll..."
E-|--(9)----------(12)----|------------------------------|--3-----------------|
B-|-----(11)--------------|-----6--5-----5--4-----4--3---|--4-----------------|
G-|---------(12)----------|-----------3--------3---------|--3-----------------|
D-|---0-------------2-----|--0---------------------------|--5-----------------|
A-|-------1---------------|------------------------------|--3-----------------|
E-|-----------3-----------|------------------------------|--------------------|


   Simile of this appears at other places in the song
    00:37 in                            "Demand..."
E-|---------------------------------------------------------------------------|
B-|---------------------------------------------------------------------------|
G-|--3---------5---------6---------5------------------------------------------|
D-|--3--5---5--5--5---5--6--5---5--5--5--7--8---------------------------------|
A-|-----5---5-----5---5-----5---5-----5--7--8---------------------------------|
E-|---------------------------------------------------------------------------|


   Solo is based around this
    1:26 in                                       T= trill
E-|---------------------------------------------------------------------------|
B-|---------------------------------------------------------------------------|
G-|---------------------------------------------------------------------------|
D-|----------------------------------5--4--3-----2T3--------------------------|
A-|-----5--4--0---1--4--0--3------5-----------4-------------------------------|
E-|--3-------------------------3----------------------------------------------|


  This comes in behind the dramatic orchestra part later in the song.
    2:41 in
E-|---------------------------------------------------------------------------|
B-|--x-x-x-x---x-x---x---x-x--x-x-x-x---x-x---x-------------------------------|
G-|--x-x-x-x-3-x-x-6-x-5-x-x--x-x-x-x-3-x-x-6-x-5-----------------------------|
D-|--x-x-x-x-3-x-x-6-x-5-x-x--x-x-x-x-3-x-x-6-x-5-----------------------------|
A-|--x-x-x-x---x-x---x---x-x--x-x-x-x---x-x---x-------------------------------|
E-|---------------------------------------------------------------------------|