background
Alice Cooper Tablature: Make That Money

Make That Money

Words and music by
From the album Zipper Catches Skin (1983)
Transcribed by Eric Neveu (ericn@progression.net)

INTRO           WHEN I WAS A BOY.....

E------------------------------------------------------------------------
B------------------------------------------------------------------------
G-----2-----9----------------------------2---2-----7------2---2-----5----
D-----2-----9----------------------------2---2-----7------2---2-----5----
A-----0-----7----------------------------0---0-----5------0---0-----3----
E------------------------------------------------------------------------


E---------------------------------
B-2---2---5---4-------------------
G-2---2---5---4---5---4---2-------
D-0---0---3---2---5---4---2-------
A-----------------3---2---0-------
E---------------------------------


REPEAT


     MAKE THAT MONEY                      MAKE THAT MONEY
E--------------------------------------------------------------------------
B--------------------------------------------------------------------------
G----------4----5--4---------4---2-------------4----5--4-----------4----2--
D----0-----2----3--2-----0---2---2--------0----2----3--2------0----2----2--
A--------------------------------0--------------------------------------0--
E--------------------------------------------------------------------------


   MAKE THAT MONEY  RUN LIKE HONEY ON YOUR TONGUE

E--------------------------------------------------------------------------
B--------------------------------------------------------------------------
G-------4----5--4-------------------------------------5--4-----------------
D--0----2----3--2--0----------------------------------5--4-----------------
A-----------------------3----1-----0--1----2----------3--2-----------------
E--------------------------------------------------------------------------


AND I KNOW....             HE TOLD ME SO.........

REPEAT OVER AND OVER
AGAIN
DURING THE SOLO
E----------------------------------12---0---9------------------------------
B----------------------0--10--12-------------------0-----0--0---10---12----
G--------------------------------------------------------------------------
D--------------------------------------------------------------------------
A--------------------------------------------------------------------------
E--------------------------------------------------------------------------


ON YOUR TONGUE..........

E--------------------------------------------------------------------------
B-------------------------3------------------------------------------------
G-------------------------2--------5----7-----------------2----------------
D-------------------------0--------3----5------5----7-----2------5-----7---
A----------------------------------------------3----5-----0------3-----5---
E--------------------------------------------------------------------------