background
Alice Cooper Tablature: Luney Tune

Luney Tune

From the album School's Out
Transcribed by DoteStudios

Root Six A position
E---5-(1st finger)| You basically bar
B---5-(1st finger)| the 5th fret and
G---6-(1st finger)| place your 3rd and 4th
D---7-(3rd finger)| fingers on the 7th fret
A---7-(4th finger)| of the A and D strings
E---5-(1st finger)| 

Keys
b = bend
r = release
\ = slide up neck 
/ = slide down neck
h = hammer-on
p = pull-off
~ = hold note

Lead Guitar (Glen Buxton)
E--------5-5--5-5------------------5-5--5-5------------|
B--------5-5--5-5------------------5-5--5-5------------|
G------------------------------------------------------|
D------------------------------------------------------|
A------------------------------------------------------|
E------------------------------------------------------|

Rhythm Guitar (Michael Bruce)
E------------------------------------------------------|
B------------------------------------------------------|
G------------------------------------------------------|
D-----------------/3-3-3-3\----------------------------|
A---2--------------------------2--------------3-3-3-2--|
E-3---5----------------------3---5---------------------|

Lead Guitar
E---------------------------------------------------------------------|
B---------------------------------------------------------------------|
G-7-7-7b8-8-8-9-9-9-9-8-8-8r7-7-7-7-7-7p5------5---5-7b8-8-8-8-8-8-8r7|
D------^----------------------------------7--7---7--------------------|
A------|--------------------------------------------------------------|
E------|--------------------------------------------------------------|
You are slowly bending the 7th fret into a full bend, and then slowly releasing it


E------------------------5-----7--8--5--5-----5-----7-----------------|
B---------------------------------------------------------------------|
G-7-7p5----------5---5h7---5h7------------5h7---5h7-------------------|
D-------7--5-5h7---7--------------------------------------------------|
A---------------------------------------------------------------------|
E---------------------------------------------------------------------|

Rhythm Guitar
E---------------------------------------------------------------------|
B---------------------------------------------------------------------|
G---------------------------------------------------------------------|
D------------/3-3-3-3\------------------------------------------------|
A---2---------------------2--------3-3-3-2----2--------------2--------|
E-3---5-----------------3---5---------------3---5-----1----3---5-----1|

“I slipped into my jeans
Lookin’ hard and feelin’ mean
I took a spit at the moon
It's all in this luney tune”
Lead Guitar
E-----5----5-5------5-----7-----5----5-5-----5-----7-7----------------|
B-----5----5-5------------------5----5-5------------------------------|
G--------------5h7---5h7-----------------5h7---5h7--------------------|
D---------------------------------------------------------------------|
A---------------------------------------------------------------------|
E---------------------------------------------------------------------|

Rhythm Guitar
E---------------------------------------------------------------------|
B---------------------------------------------------------------------|
G---------------------------------------------------------------------|
D-----------------2-/3-3-3-3\-------------2---------------------------|
A---2-------2-3-5------------------2--------5-3-2-----3-3-3-2---------|
E-3---5---5----------------------3---5------------5-3-----------------|

Lead Guitar
E-----5----5-5------5-----7-----5----5-5------------------------------|
B-----5----5-5------------------5----5-5------------------------------|
G--------------5h7---5h7----------------------------------------------|
D---------------------------------------------------------------------|
A---------------------------------------------------------------------|
E---------------------------------------------------------------------|

Rhythm Guitar
E---------------------------------------------------------------------|
B---------------------------------------------------------------------|
G---------------------------------------------------------------------|
D-----------------2-/3-3-3-3\------------2----------------5------4----|
A---2-------2-3-5------------------2-------5-3-2--------5------4----2~|
E-3---5---5----------------------3---5-----------5-3--3------2--------|


“Just a little insane
A couple shots, I can't feel no pain
Hey, where have I been?
And who are these scary men?”
Lead Guitar
E-----5----5-5------5-----7-----5----5-5-----5-----7-7----------------|
B-----5----5-5------------------5----5-5------------------------------|
G--------------5h7---5h7-----------------5h7---5h7--------------------|
D---------------------------------------------------------------------|
A---------------------------------------------------------------------|
E---------------------------------------------------------------------|

Rhythm Guitar
E---------------------------------------------------------------------|
B---------------------------------------------------------------------|
G---------------------------------------------------------------------|
D-----------------2-/3-3-3-3\-------------2---------------------------|
A---2-------2-3-5------------------2--------5-3-2-----3-3-3-2---------|
E-3---5---5----------------------3---5------------5-3-----------------|

Lead Guitar
E-----5----5-5------5-----7-----5----5-5------------------------------|
B-----5----5-5------------------5----5-5------------------------------|
G--------------5h7---5h7----------------------------------------------|
D---------------------------------------------------------------------|
A---------------------------------------------------------------------|
E---------------------------------------------------------------------|

Rhythm Guitar
E---------------------------------------------------------------------|
B---------------------------------------------------------------------|
G---------------------------------------------------------------------|
D-----------------2-/3-3-3-3\------------2----------------5------4----|
A---2-------2-3-5------------------2-------5-3-2--------5------4----2~|
E-3---5---5----------------------3---5-----------5-3--3------2--------|

“Is this all real?
Is this all necessary?”
E-----------------------------|
B-----------------------------|
G-----------------------------|
D-----------------------------|
A-2--4---5--4---2--4---5--4---|
E-----------------------------|

“Or is this a joke?”
Lead Guitar
E----------------7-----7-----7---|
B----------------7-----7-----7---|
G--------------------------------|
D--------------------------------|
A--------------------------------|
E--------------------------------|



Rhythm Guitar
E--------------------------------|
B--------------------------------|
G--------------------------------|
D-4-4-4-4-4-4-4-----4------4-----|
A-4-4-4-4-4-4-4-----4------4-----|
E-2-2-2-2-2-2-2-----2------2-----|

Solo 1
Guitar 1
E-12-----12------------------------------12/15-15-15-12/15-15-15-12/15|
B----12-----12--13-13-13-13-13-12-10-10-------------------------------|
G---------------------------------------------------------------------|
D---------------------------------------------------------------------|
A---------------------------------------------------------------------|
E---------------------------------------------------------------------|

Lead Guitar
E-------5----5-5------5-----7---------5--5-5--------------------------|
B-------5----5-5----------------------5--5-5--------------------------|
G----------------5h7---5h7--------------------------------------------|
D---------------------------------------------------------------------|
A---------------------------------------------------------------------|
E---------------------------------------------------------------------|

Guitar 3
E---------------------------------------------------------------------|
B---------------------------------------------------------------------|
G---------------------------------------------------------------------|
D---------------------------------------------------8------7--5~~-----|
A---2----------------------------2----------------8------7----5~~-----|
E-3---5---------1--------------3---5------------6------5------3~~-----|


“Man, ya know 
I don't regret at all”

E----------------| 
B----------------|
G----------------|
D----------------|
A-----5--5-7--5--|
E-3/5------------|

“They locked me up for good 
Pinned me against the wall
I can't find the exit 
I quit lookin’ for doors 
I stole a razor from the commissary 
I just couldn't take it no more”

C - G - Dm - G - C - G - Dm - G - F - Am - Am,G,C - G - F - E


Solo 2
Guitar 1
E-----------------------5---------------5----5------------------------|  
B-------------------------8-8p5-8b10~~~---8----8-8-5-8-5-8b10~~~-8/10-|
G-7b9~~~-7-5-5--------------------------------------------------------|
D---------------7-5-7-------------------------------------------------|
A---------------------------------------------------------------------|
E---------------------------------------------------------------------|


E-8----8-8/10--10/12--12/15--15/17--17--17--17--17-------------------|  
B---10------------------------------------------20b22~22~22~22~22~22~|
G--------------------------------------------------------------------|
D--------------------------------------------------------------------|
A--------------------------------------------------------------------|
E--------------------------------------------------------------------|

E-------------|
B-22r20-------|
G-------------|
D-------19~~--|
A-------------|
E-------------|

Guitar 2
E--------------5--5-5----------5--5-5--------5--5-5-------------------|
B--------------5--5-5----------5--5-5--------5--5-5-------------------|
G---------------------------------------------------------------------|
D---------------------------------------------------------------------|
A---------------------------------------------------------------------|
E---------------------------------------------------------------------|

Guitar 3
E---------------------------------------------------------------------|
B---------------------------------------------------------------------|
G---------------------------------------------------------------------|
D-2-------------------------------------------------------------------|
A----5--3----2---------------2---------------2---------------2--------|
E----------3---5-------1---3---5-------1---3---5-------3---3---5-----1|

“I'm swimmin’ in blood
Like a rat on a sewer flood
No longer insane
Just part of this crazy dream”
Lead Guitar
E-----5----5-5------5-----7-----5----5-5-----5-----7-7----------------|
B-----5----5-5------------------5----5-5------------------------------|
G--------------5h7---5h7-----------------5h7---5h7--------------------|
D---------------------------------------------------------------------|
A---------------------------------------------------------------------|
E---------------------------------------------------------------------|


Rhythm Guitar
E---------------------------------------------------------------------|
B---------------------------------------------------------------------|
G---------------------------------------------------------------------|
D-----------------2-/3-3-3-3\-------------2---------------------------|
A---2-------2-3-5------------------2--------5-3-2-----3-3-3-2---------|
E-3---5---5----------------------3---5------------5-3-----------------|

Lead Guitar
E-----5----5-5------5-----7-----5----5-5------------------------------|
B-----5----5-5------------------5----5-5------------------------------|
G--------------5h7---5h7----------------------------------------------|
D---------------------------------------------------------------------|
A---------------------------------------------------------------------|
E---------------------------------------------------------------------|

Rhythm Guitar
E---------------------------------------------------------------------|
B---------------------------------------------------------------------|
G---------------------------------------------------------------------|
D-----------------2-/3-3-3-3\------------2----------------5------4----|
A---2-------2-3-5------------------2-------5-3-2--------5------4----2~|
E-3---5---5----------------------3---5-----------5-3--3------2--------|

Lead Guitar
E-----------------------------|
B-----------------------------|
G-4--4-6--6-6-6-7--7-6--6-6-6-|
D-----------------------------| 
A-----------------------------|
E-----------------------------|

Rhythm Guitar
E-----------------------------|
B-----------------------------|
G-----------------------------|
D-----------------------------|
A-2-----4---------5-----4-----|
E-----------------------------|
Repeat the above part 4

Lead Guitar
E-12----12--12--------------12----12--12-----------------12-----------|  
B-15b17-----15b17--15-15-12-15b17-----15b17--15-15-12-15--------------|
G---------------------------------------------------------------------|
D-----------------------------------------------------------14--14-14-|
A---------------------------------------------------------------------|
E---------------------------------------------------------------------|

E----12----12----12----12----|
B----------------------------|
G----------------------------|
D-14----14----14----14----14-|
A----------------------------|
E----------------------------|

Rhythm Guitar
E-----------------------------|
B-----------------------------|
G-----------------------------|
D-----------------------------| 
A-2--4---5--4---2--4---5--4---|
E-----------------------------|

Lead Guitar
E-12----12--12--------------12----12--12-----------------12-----------|  
B-15b17-----15b17--15-15-12-15b17-----15b17--15-15-12-15--------------|
G---------------------------------------------------------------------|
D-----------------------------------------------------------14--14-14-|
A---------------------------------------------------------------------|
E---------------------------------------------------------------------|

E-----12----12----12----12----|
B-----------------------------|
G-----------------------------|
D-14-----14----14----14----14-|
A-----------------------------|
E-----------------------------|

Rhythm Guitar
E-----------------------------|
B-----------------------------|
G-4--6---7--6---4--6---7--6---| 2x
D-----------------------------|
A-----------------------------|
E-----------------------------|

Lead Guitar
E-12----12--12--------------12----12--12-----------------12-----------|  
B-15b17-----15b17--15-15-12-15b17-----15b17--15-15-12-15--------------|
G---------------------------------------------------------------------|
D-----------------------------------------------------------14--14-14-|
A---------------------------------------------------------------------|
E---------------------------------------------------------------------|

E-----12----12----12----12----|
B-----------------------------|
G-----------------------------|
D-14-----14----14----14----14-|
A-----------------------------|
E-----------------------------|

Rhythm Guitar
E-7--9---10--9--7--9---10--9--|
B-----------------------------|
G-----------------------------| 2x
D-----------------------------|
A-----------------------------|
E-----------------------------|



Lead and Rhythm Guitar
Hold these in the root six A chord position (instructions above tab)
E-5~~~-----------------------------------5----|
B-5~~~---------------------------------5------|
G-6~~~6-6-6-6-6-6-6-6-6-6-6-6-6-6-6~~6--------|
D-7~~~7-7-7-7-7-7-7-7-7-7-7-7-7-7-7~~---------|
A-7~~~7-7-7-7-7-7-7-7-7-7-7-7-7-7-7~~---------|
E-5~~~5-5-5-5-5-5-5-5-5-5-5-5-5-5-5~~---------|
      Play these very fast