background
Alice Cooper Tablature: Long Way To Go

Long Way To Go

Words and music by Michael Bruce
From the album Love It To Death (1971)
Transcribed by Brian Gaddis

p= pull-off  /= slide up  \= slide down  b= bend  rb= reverse bend

   s\= pick scrape down  x= mute


   Guitar one
E-|---------------------------------------------------------------------------|
B-|---------------------------------------------------------------------------|
G-|--12----------7----------2----------5----------12-----------7--------------|
D-|--12----------7----------2----------5----------12-----------7--------------|
A-|--10----------5----------0----------3----------10-----------5--------------|
E-|---------------------------------------------------------------------------|
  |                                                                           |
  |Guitar two                                                                 |
E-|--3\----------2------------------------------------------------------------|
B-|--3\----------3------------------------------------------------------------|
G-|--4\----------2----------2----------5/---------12\----------7--------------|
D-|--5\----------0----------2----------5/---------12\----------7--------------|
A-|--5\---------------------0----------3/---------10\----------5--------------|
E-|--3\-----------------------------------------------------------------------|



E-|---------------------------------------------------------------------------|
B-|-----x--9---9--x--x-----x--9---9--x--x-----x--9---9--x--x-----x--9\--------|
G-|--9--x--9---9--x--x--9--x--9---9--x--x--9--x--9---9--x--x--9--x--9\--------|
D-|--9--x--9---9--x--x--9--x--9---9--x--x--9--x--9---9--x--x--9--x--9\--------|
A-|--7--x--7---7--x--x--7--x--7---7--x--x--7--x--7---7--x--x--7--x--7\--------|
E-|---------------------------------------------------------------------------|


    "We    still got a long way to go."
E-|---------------------------------------------------------------------------|
B-|--------3--------------------------x--9---9--x--x-----x--9--9--9\----------|
G-|--------2-----------2-----------9--x--9---9--x--x--9--x--9--9--9\----------|
D-|--------0-----------2-----------9--x--9---9--x--x--9--x--9--9--9\----------|
A-|--------------------0-----------7--x--7---7--x--x--7--x--7--7--7\----------|
E-|---------------------------------------------------------------------------|


    "We    still got a long way to go."
E-|---------------------------------------------------------------------------|
B-|--------3--------------------------x--9---9--x--x-----x--9--9\-------------|
G-|--------2-----------2-----------9--x--9---9--x--x--9--x--9--9\-------------|
D-|--------0-----------2-----------9--x--9---9--x--x--9--x--9--9\-------------|
A-|--------------------0-----------7--x--7---7--x--x--7--x--7--7\-------------|
E-|---------------------------------------------------------------------------|


    "We all got a long                     way to go."
E-|---------------3-3-3-3-3-3-3-3-3-3-3-3-3-3-3-3-----------------------------|
B-|---------------3-3-3-3-3-3-3-3-3-3-3-3-3-3-3-3----x--9---9--x--x-----x--9--|
G-|-----5---------2-2-2-2-2-2-2-2-2-2-2-2-2-2-2-2-9--x--9---9--x--x--9--x--9--|
D-|-----5---------0-0-0-0-0-0-0-0-0-0-0-0-0-0-0-0-9--x--9---9--x--x--9--x--9--|
A-|-----3-----------------------------------------7--x--7---7--x--x--7--x--7--|
E-|---------------------------------------------------------------------------|


    "What's   keeping us         apart, isn't       selfishness."
                  "Where is that savior  of the     sidewalk           life
E-|---------------------------------------------------------------------------|
B-|--9--x--x-----x--9---9--x--x-----x--9---9--x--x-----x--9---9--x--x-----x---|
G-|--9--x--x--9--x--9---9--x--x--9--x--9---9--x--x--9--x--9---9--x--x--9--x---|
D-|--9--x--x--9--x--9---9--x--x--9--x--9---9--x--x--9--x--9---9--x--x--9--x---|
A-|--7--x--x--7--x--7---7--x--x--7--x--7---7--x--x--7--x--7---7--x--x--7--x---|
E-|---------------------------------------------------------------------------|


         "What's  holding us       together,   isn't    love."
    "and the      road that takes us to      the     crusades?"
E-|---------------------------------------------------------------------------|
B-|--9---9--x--x-----x--9---9--x--x-----x--9---9--x--x-----x--9---9--x--x-----|
G-|--9---9--x--x--9--x--9---9--x--x--9--x--9---9--x--x--9--x--9---9--x--x--9--|
D-|--9---9--x--x--9--x--9---9--x--x--9--x--9---9--x--x--9--x--9---9--x--x--9--|
A-|--7---7--x--x--7--x--7---7--x--x--7--x--7---7--x--x--7--x--7---7--x--x--7--|
E-|---------------------------------------------------------------------------|


              "Listen to the man who's been touched all his life.      Yes,
E-|---------------------------------------------------------------------------|
B-|--x--9--9---3-------------2--2---2---2---5---5--5--------4--4--4--4--------|
G-|--x--9--9---2-------------2--2---2---2---4---4--4--------4--4--4--4--------|
D-|--x--9--9---2-------------2--2---2---2---4---4--4--------4--4--4--4--------|
A-|--x--7--7---0-------------0--0---0---0---2---2--2--------2--2--2--2--------|
E-|---------------------------------------------------------------------------|


    "he's the one they  call   a  fool."                         (w/Fill one)
E-|---------------------------------------------------------------------------|
B-|--8--8--8--8--8--8--7-7-7-7-7-----x--9---9--x--x-----x--9--9--9--9---------|
G-|--7--7--7--7--7--7--7-7-7-7-7--9--x--9---9--x--x--9--x--9--9--9--9---------|
D-|--7--7--7--7--7--7--7-7-7-7-7--9--x--9---9--x--x--9--x--9--9--9--9---------|
A-|--5--5--5--5--5--5--5-5-5-5-5--7--x--7---7--x--x--7--x--7--7--7--7---------|
E-|---------------------------------------------------------------------------|

   Fill one (Bend note as necessary.)
E-|------------------------------------|
B-|--10b-rb-b-rb-b-rb-b----------------|
G-|------------------------------------|
D-|------------------------------------|
A-|------------------------------------|
E-|------------------------------------|



   After verse two
    "I've seen the shadows as they're moving in my sleep.         Leading the
E-|---------------------------------------------------------------------------|
B-|--3--3-3-3-3-3--2--2--2--2--2--2---5--5-5-5-5-5-4-4-4-4-4-4----8--8--8--8--|
G-|--2--2-2-2-2-2--2--2--2--2--2--2---4--4-4-4-4-4-4-4-4-4-4-4----7--7--7--7--|
D-|--2--2-2-2-2-2--2--2--2--2--2--2---4--4-4-4-4-4-4-4-4-4-4-4----7--7--7--7--|
A-|--0--0-0-0-0-0--0--0--0--0--0--0---2--2-2-2-2-2-2-2-2-2-2-2----5--5--5--5--|
E-|---------------------------------------------------------------------------|


    "blind poet to his  grave."
E-|---------------------------------------------------------------------------|
B-|--8--8--7-7-7-7-7-7-----x--9--9--x--x------x--9--9\------------------------|
G-|--7--7--7-7-7-7-7-7--9--x--9--9--x--x---9--x--9--9\------------------------|
D-|--7--7--7-7-7-7-7-7--9--x--9--9--x--x---9--x--9--9\------------------------|
A-|--5--5--5-5-5-5-5-5--7--x--7--7--x--x---7--x--7--7\------------------------|
E-|---------------------------------------------------------------------------|


    "We    still got a long way to go."
E-|---------------------------------------------------------------------------|
B-|--------3--------------------------x--9---9--x--x-----x--9--9--x--x--------|
G-|--------2-----------2-----------9--x--9---9--x--x--9--x--9--9--x--x--------|
D-|--------0-----------2-----------9--x--9---9--x--x--9--x--9--9--x--x--------|
A-|--------------------0-----------7--x--7---7--x--x--7--x--7--7--x--x--------|
E-|---------------------------------------------------------------------------|


    "We    still got a long way to go."
E-|---------------------------------------------------------------------------|
B-|--------3--------------------------x--9---9--x--x-----x--9--9\-------------|
G-|--------2-----------2-----------9--x--9---9--x--x--9--x--9--9\-------------|
D-|--------0-----------2-----------9--x--9---9--x--x--9--x--9--9\-------------|
A-|--------------------0-----------7--x--7---7--x--x--7--x--7--7\-------------|
E-|---------------------------------------------------------------------------|


    "We all got a long                   way to go."
E-|---------------3-3-3-3-3-3-3-3-3-3-3-3-3-3-3-3-----------------------------|
B-|---------------3-3-3-3-3-3-3-3-3-3-3-3-3-3-3-3-----------------------------|
G-|-----5---------2-2-2-2-2-2-2-2-2-2-2-2-2-2-2-2-----------------------------|
D-|-----5---------0-0-0-0-0-0-0-0-0-0-0-0-0-0-0-0-----------------------------|
A-|-----3---------------------------------------------------------------------|
E-|---------------------------------------------------------------------------|


   Guitar one
E-|---------------------------------------------------------------------------|
B-|--10p8-----10p8-----10p8-----10p8-----10b--10--8---------------------------|
G-|--------9--------9--------9--------9--------------9------------------------|
D-|---------------------------------------------------------------------------|
A-|---------------------------------------------------------------------------|
E-|---------------------------------------------------------------------------|
  |                                                                           |
  |Guitar two                                                                 |
E-|---------------------------------------------------------------------------|
B-|---------------------------------------------------------------------------|
G-|---9p7------9p7------9p7------9p7------9b--9--7----------------------------|
D-|--------9--------9--------9--------9--------------9------------------------|
A-|---------------------------------------------------------------------------|
E-|---------------------------------------------------------------------------|


E-|------------------------------------|
B-|-----x--9--9--x--x------x--9--9--9--|
G-|--9--x--9--9--x--x---9--x--9--9--9--|
D-|--9--x--9--9--x--x---9--x--9--9--9--|
A-|--7--x--7--7--x--x---7--x--7--7--7--|
E-|------------------------------------|


   Guitar one
E-|---------------------------------------------------------------------------|
B-|--10p8-----10p8----10p8-----10p8-----10b--10--8----------------------------|
G-|--------9--------9-------9--------9--------------9-------------------------|
D-|---------------------------------------------------------------------------|
A-|---------------------------------------------------------------------------|
E-|---------------------------------------------------------------------------|
  |                                                                           |
  |Guitar two                                                                 |
E-|---------------------------------------------------------------------------|
B-|---------------------------------------------------------------------------|
G-|---9p7------9p7-----9p7------9p7------9b---9--7----------------------------|
D-|--------9--------9-------9--------9--------------9-------------------------|
A-|---------------------------------------------------------------------------|
E-|---------------------------------------------------------------------------|


E-|------------------------------------|
B-|-----x--9--9--x--x------x--9--9--9--|
G-|--9--x--9--9--x--x---9--x--9--9--9--|
D-|--9--x--9--9--x--x---9--x--9--9--9--|
A-|--7--x--7--7--x--x---7--x--7--7--7--|
E-|------------------------------------|


  Solo not transcribed


     (After Solo)
E-|---------------------------------------------------------------------------|
B-|--3--3--3--3--3--3---2--2--2--2--2--2---5--5--5--5--5--5---4--4--4--4--4--4|
G-|--2--2--2--2--2--2---2--2--2--2--2--2---4--4--4--4--4--4---4--4--4--4--4--4|
D-|--2--2--2--2--2--2---2--2--2--2--2--2---4--4--4--4--4--4---4--4--4--4--4--4|
A-|--0--0--0--0--0--0---0--0--0--0--0--0---2--2--2--2--2--2---2--2--2--2--2--2|
E-|---------------------------------------------------------------------------|

                                         "Please, don't waste your energy on
E-|---------------------------------------------------------------------------|
B-|--8--8--8--8--8--8---7--7--7--7--7-----9\----------------------------------|
G-|--7--7--7--7--7--7---7--7--7--7--7-----9\--------------------------s\------|
D-|--7--7--7--7--7--7---7--7--7--7--7-----9\---------------------------s\-----|
A-|--5--5--5--5--5--5---5--5--5--5--5-----7-----------------------------s\-10\|
E-|------------------------------------0--------------------------------------|


  (Listen for rhythm here between chords. Not every sound is notated.)
       "me, my friend. 'Cause we  still got a long way to go."
E-|-----x--x--x--x--x--x--x--x-----x--x--x--x--x--x--x--x-----x--x--x--x--x---|
B-|--8--x--x--x--x--x--x--x--x--8--x--x--x--x--x--x--x--x--8--x--x--x--x--x---|
G-|--7--x--x--x--x--x--x--x--x--7--x--x--x--x--x--x--x--x--7--x--x--x--x--x---|
D-|--9--x--x--x--x--x--x--x--x--9--x--x--x--x--x--x--x--x--9--x--x--x--x--x---|
A-|-----x--x--x--x--x--x--x--x-----x--x--x--x--x--x--x--x-----x--x--x--x--x---|
E-|---------------------------------------------------------------------------|


    "We'll meet again someday. Right now just go away 'cause I  still got a
E-|--x--x-----x--x--x--x--x--x--x--x-----x--x--x--x--x--x--x-----x--x--x--x---|
B-|--x--x--8--x--x--x--x--x--x--x--x--8--x--x--x--x--x--x--x--8--x--x--x--x---|
G-|--x--x--7--x--x--x--x--x--x--x--x--7--x--x--x--x--x--x--x--7--x--x--x--x---|
D-|--x--x--9--x--x--x--x--x--x--x--x--9--x--x--x--x--x--x--x--9--x--x--x--x---|
A-|--x--x-----x--x--x--x--x--x--x--x-----x--x--x--x--x--x--x-----x--x--x--x---|
E-|---------------------------------------------------------------------------|


    "long way to go.                              "Silence       is
E-|--x--x--x--x-----x--x--x--x--x--x--x--x--x--x------------------------------|
B-|--x--x--x--x--8--x--x--x--x--x--x--x--x--x--x---3--3--3--3--3--3-----------|
G-|--x--x--x--x--7--x--x--x--x--x--x--x--x--x--x---2--2--2--2--2--2-----------|
D-|--x--x--x--x--9--x--x--x--x--x--x--x--x--x--x---2--2--2--2--2--2-----------|
A-|--x--x--x--x-----x--x--x--x--x--x--x--x--x--x---0--0--0--0--0--0-----------|
E-|---------------------------------------------------------------------------|


    "speaking,            so why  am   I   weeping?             I guess I'll
E-|---------------------------------------------------------------------------|
B-|--2--2--2--2--2--2---5--5--5--5--5--5---4--4--4--4--4--4---8--8--8--8--8--8|
G-|--2--2--2--2--2--2---4--4--4--4--4--4---4--4--4--4--4--4---7--7--7--7--7--7|
D-|--2--2--2--2--2--2---4--4--4--4--4--4---4--4--4--4--4--4---7--7--7--7--7--7|
A-|--0--0--0--0--0--0---2--2--2--2--2--2---2--2--2--2--2--2---5--5--5--5--5--5|
E-|---------------------------------------------------------------------------|

    "love it, love it to death."
E-|---------------------------------------------------------------------------|
B-|--7---7---7---7---7---7----------------------------------------------------|
G-|--7---7---7---7---7---7--------9--x--9--9--9--9--9--x--9\------------------|
D-|--7---7---7---7---7---7--------9--x--9--9--9--9--9--x--9\------------------|
A-|--5---5---5---5---5---5--------7--x--7--7--7--7--7--x--7\------------------|
E-|-------------------------------0--x--0--0--0--0--0--x--0\------------------|


  "Yes, we still got a long way to go."
E-|---------------------------------------------------------------------------|
B-|--------3--------------------------x--9---9--x--x-----x--9--9--9\----------|
G-|--------2-----------2-----------9--x--9---9--x--x--9--x--9--9--9\----------|
D-|--------0-----------2-----------9--x--9---9--x--x--9--x--9--9--9\----------|
A-|--------------------0-----------7--x--7---7--x--x--7--x--7--7--7\----------|
E-|---------------------------------------------------------------------------|


  "Yes, we still got a long way to go."
E-|---------------------------------------------------------------------------|
B-|--------3--------------------------x--9---9--x--x-----x--9--9\-------------|
G-|--------2-----------2-----------9--x--9---9--x--x--9--x--9--9\-------------|
D-|--------0-----------2-----------9--x--9---9--x--x--9--x--9--9\-------------|
A-|--------------------0-----------7--x--7---7--x--x--7--x--7--7\-------------|
E-|---------------------------------------------------------------------------|


  "Yes, we all got a        long        way to go."
E-|---------------3-3-3-3-3-3-3-3-3-3-3-3-3-3-3------------------------------|
B-|---------------3-3-3-3-3-3-3-3-3-3-3-3-3-3-3------------------------------|
G-|-----5---------2-2-2-2-2-2-2-2-2-2-2-2-2-2-2--9---------------------------|
D-|-----5---------0-0-0-0-0-0-0-0-0-0-0-0-0-0-0--9---------------------------|
A-|-----3----------------------------------------7---------------------------|
E-|--------------------------------------------------------------------------|


   Guitar one
E-|---------------------------------------------------------------------------|
B-|--10p8-----10p8-----10p8-----10p8-----10b--10--8------9\-------------------|
G-|--------9--------9--------9--------9--------------9---9\-------------------|
D-|------------------------------------------------------9\-------------------|
A-|------------------------------------------------------7\-------------------|
E-|---------------------------------------------------------------------------|
  |                                                                           |
  |Guitar two                                                                 |
E-|---------------------------------------------------------------------------|
B-|---------------------------------------------------------------------------|
G-|---9p7-----9p7-----9p7-----9p7---------9b---9--7------9\-------------------|
D-|--------9-------9-------9-------9-----------------9---9\-------------------|
A-|------------------------------------------------------7\-------------------|
E-|---------------------------------------------------------------------------|