background
Alice Cooper Tablature: It's Much To Late (Solo)

It's Much To Late (Solo)

Words and music by
From the album Dragontown (2002)
Transcribed by Tuomo Pirinen (freedam)

 b= bend up    rb= release bend   /= slide up   \= slide down

h= hammer on p= pull-off ~~= vibrato

e-|--------------------------------------------------9---9b--rb---7-----------|
b-|----------------------------------------/10b--12------------------9--------|
g-|-9b-rb-b-rb--7--------7b--7~~-7---------------------------------------7----|
d-|----------------9-8~-------------9-7-------------------------------------9-|
a-|---------------------------------------------------------------------------|
E-|---------------------------------------------------------------------------|


e-|-------------12-------12-------12b--12-----12---------------12-------12----|
b-|-/9--12---15----12p15----12p15----------15-----15-12~-11p15----11p15-------|
g-|---------------------------------------------------------------------------|
d-|---------------------------------------------------------------------------|
a-|---------------------------------------------------------------------------|
E-|---------------------------------------------------------------------------|


e-|-------12b--12-----------------------------12--------12--------12b--12-----|
b-|-11p15---------15--15h17p15--12-11------15--------15--------15---------15--|
g-|-------------------------------------14--------14--------14----------------|
d-|---------------------------------------------------------------------------|
a-|---------------------------------------------------------------------------|
E-|---------------------------------------------------------------------------|


e-|-12------------/14-14--19--12rb--10h12--10--------17-----------------------|
b-|----15----------------------------------------17b----17b----17rb-p15-------|
g-|-------14\------------------------------------------------------------16---|
d-|---------------------------------------------------------------------------|
a-|---------------------------------------------------------------------------|
E-|---------------------------------------------------------------------------|


e-|-----17-----------------------17b---17p15--14h15p14-12-14--14b-rb--12------|
b-|-17b----17~~~~-17b-rb-p15---------------------------------------------12~~~|
g-|--------------------------16-----------------------------------------------|
d-|---------------------------------------------------------------------------|
a-|---------------------------------------------------------------------------|
E-|---------------------------------------------------------------------------|