background
Alice Cooper Tablature: I Never Cry

I Never Cry

Words and music by Alice Cooper, Bob Ezrin and Dick Wagner
From the album Goes To Hell (1976)
Transcribed by Brian Gaddis

    Intro 2x
E-|--0--0--0--0---3--3--3--3---1--1--1--1---1--1--1--1------------------------|
B-|--1--1--1--1---3--3--3--3---1--1--1--1---1--1--1--1------------------------|
G-|--0--0--0--0---3--3--3--3---2--2--2--2---1--1--1--1------------------------|
D-|--2--2--2--2---2--2--2--2---3--3--3--3---0--0--0--0------------------------|
A-|--3--3--3--3---3--3--3--3---3--3--3--3-------------------------------------|
E-|----------------------------1--1--1--1-------------------------------------|


       "If there's a tear on my face,"
       "Sometimes I drink more than I need."
       "'Cause that's all I got to give to you."
E-|--0--0--0--0-----3--3--3--3------1--1--1--1---1--1--1--1-------------------|
B-|--1--1--1--1-----3--3--3--3------1--1--1--1---1--1--1--1-------------------|
G-|--0--0--0--0-----3--3--3--3------2--2--2--2---1--1--1--1-------------------|
D-|--2--2--2--2-----2--2--2--2------3--3--3--3---0--0--0--0-------------------|
A-|--3--3--3--3-----3--3--3--3------3--3--3--3--------------------------------|
E-|---------------------------------1--1--1--1--------------------------------|


     "It makes me shiver to the bone.          It shakes me, babe."
     "Until the T.V.'s dead and gone."
     "Believe me, babe, it ain't been used."
E-|--0--0--0--0----3--3--3--3-------1--1--1--1----1--1--1--1------------------|
B-|--1--1--1--1----3--3--3--3-------1--1--1--1----1--1--1--1------------------|
G-|--0--0--0--0----3--3--3--3-------2--2--2--2----1--1--1--1------------------|
D-|--2--2--2--2----2--2--2--2-------3--3--3--3----0--0--0--0------------------|
A-|--3--3--3--3----3--3--3--3-------3--3--3--3--------------------------------|
E-|---------------------------------1--1--1--1--------------------------------|


     "It's just a heartache that got caught in my eye  and you
     "I may be lonely,     but I'm never alone         and the
     "My heart's a virgin, it ain't never been tried,  and you
E-|--0--0--0--0----3--3--3--3------1--1--1--1------2--2--2--2-----------------|
B-|--1--1--1--1----3--3--3--3------1--1--1--1------1--1--1--1-----------------|
G-|--0--0--0--0----3--3--3--3------2--2--2--2------2--2--2--2-----------------|
D-|--2--2--2--2----2--2--2--2------3--3--3--3------0--0--0--0-----------------|
A-|--3--3--3--3----3--3--3--3------3--3--3--3---------------------------------|
E-|--------------------------------1--1--1--1---------------------------------|


    "know.         I never cry.                 I never cry."(Go to verse 3)
    "night         may pass me by,              but I never cry."

                                                 {End}
    "know.         I'll never cry.             ("I never...") (Go to Part 2)
E-|--0--0--0--0----0--0--0--0-----1--1--1--1----3--3--3--3--------------------|
B-|--1--1--1--1----1--1--1--1-----1--1--1--1----0--0--0--0--------------------|
G-|--0--0--0--0----0--0--0--0-----2--2--2--2----0--0--0--0--------------------|
D-|--2--2--2--2----2--2--2--2-----0--0--0--0----0--0--0--0--------------------|
A-|--3--3--3--3----0--0--0--0-------------------x--x--x--x--------------------|
E-|---------------------------------------------3--3--3--3--------------------|


E-|--1--1--1--1---1--1--1--1-|---0--0--0--0----3--3--3--3---------------------|
B-|--1--1--1--1---1--1--1--1-|---1--1--1--1----3--3--3--3---------------------|
G-|--2--2--2--2---2--2--2--2-|---0--0--0--0----3--3--3--3---------------------|
D-|--3--3--3--3---3--3--3--3-|---2--2--2--2----2--2--2--2---------------------|
A-|--3--3--3--3---3--3--3--3-|---3--3--3--3----3--3--3--3---------------------|
E-|--1--1--1--1---1--1--1--1-|------------------------------------------------|


  Chorus
    "Take away,               take away my eyes.     Sometimes I'd rather
E-|--1--1--1--1--1--1--1--1---0---0---0---0---0--0---1--1--1--1--1--1--1------|
B-|--1--1--1--1--1--1--1--1---3---3---3---1---1--1---1--1--1--1--1--1--1------|
G-|--2--2--2--2--2--2--2--2---0---0---0---0---0--0---2--2--2--2--2--2--2------|
D-|--3--3--3--3--3--3--3--3---2---2---2---2---2--2---0--0--0--0--0--0--0------|
A-|--3--3--3--3--3--3--3--3---2---2---2---0---0--0----------------------------|
E-|--1--1--1--1--1--1--1--1---0---0---0---------------------------------------|


    " be blind.                        Break a heart,          break a heart
E-|--1--3--3--3--3-3---3--3--3--3--3---1--1--1--1---1--1--1--1--0---0---0-----|
B-|--1--1--1--1--1-1---0--0--0--0--0---1--1--1--1---1--1--1--1--3---3---3-----|
G-|--2--0--0--0--0-0---0--0--0--0--0---2--2--2--2---2--2--2--2--0---0---0-----|
D-|--0--0--0--0--0-0---0--0--0--0--0---3--3--3--3---3--3--3--3--2---2---2-----|
A-|-----x--x--x--x-x---x--x--x--x--x---3--3--3--3---3--3--3--3--2---2---2-----|
E-|-----3--3--3--3-3---3--3--3--3--3---1--1--1--1---1--1--1--1--0---0---0-----|


   of stone.       Open it up, but don't you leave it   alone." (To verse 3)
E-|---0--0--0--0---1--1--1--1--1--1--1-------3-----3--3-----------------------|
B-|---1--1--1--1---1--1--1--1--1--1--1-------1-----0--0-----------------------|
G-|---0--0--0--0---2--2--2--2--2--2--2-------0-----0--0-----------------------|
D-|---2--2--2--2---0--0--0--0--0--0--0-------0-----0--0-----------------------|
A-|---0--0--0--0-----------------------------x-----x--x-----------------------|
E-|------------------------------------------3-----3--3-----------------------|



  Part 2
    "And you know  I never  cry.               Well
    "you know, you know, you know I never cry. I never cry." (Go to Chorus)
E-|--0--0--0--0---0--0--0--0---1--1--1--1----3--3--3--3-----------------------|
B-|--1--1--1--1---1--1--1--1---1--1--1--1----0--0--0--0-----------------------|
G-|--0--0--0--0---0--0--0--0---2--2--2--2----0--0--0--0-----------------------|
D-|--2--2--2--2---2--2--2--2---0--0--0--0----0--0--0--0-----------------------|
A-|--3--3--3--3---0--0--0--0-----------------x--x--x--x-----------------------|
E-|------------------------------------------3--3--3--3-----------------------|



  End
    "..cry."
E-|--1--1--1--1-----1---1----0--|
B-|--1--1--1--1-----1---1----1--|
G-|--2--2--2--2-----2---2----0--|
D-|--3--3--3--3-----3---3----2--|
A-|--3--3--3--3-----3---3----3--|
E-|--1--1--1--1-----1---1-------|