background
Alice Cooper Tablature: I Know Where You Live

I Know Where You Live

Words and music by Alice Cooper, Danny Saber, Greg Hampton
From the album Along Came A Spider (2008)
Transcribed by Criss Hart
Email: voyager2@bigpond.net.au

 Intro/verse  add mutes ( listen to song ) 

e|---------------------------------------------------------------------------|
B|---------------------------------------------------------------------------|
G|---------------------------------------------------------------------------|
D|--------------------------5-6-7-7-7--------------------------3-4-5-5-6-7---|
A|--7-7-7-x-x-7-6-5-5-5-x-x-3-4-5-5-5x-x-5-4-3-----5-6-7-7-----1-2-3-3-4-5---|
E|--5-5-5-x-x-5-4-3-3-3-x-x--------------3-2-1-x-x-3-4-5-5-x-x---------------|


  (       Riff 1     )   I know the hours you sleep
e|---------------------------------------------------------------------------|
B|---------------------------------------------------------------------------|
G|---------------------------------------------------------------------------|
D|---------------------------------------------------------------------------|
A|-5-4-3-3-4-5-5-6-7\--------------------------------------------------------|
E|-3-2-1-1-2-3-3-4-5\-----3-5---3--3---5--3-----0----------------------------|


   I like to go through your things The touch, the smell, the joy it brings
e|---------------------------------------------------------------------------|
B|---------------------------------------------------------------------------|
G|-----------------------------7b9-------------------------Riff 1 -----------|
D|-7--8---7---5----7-----5---------------------------------------------------|
A|---------------------------------------------------------------------------|
E|---------------------------------------------------------------------------|

       Lick 1  1.42 seconds this repeats a few times so add it in where needed 

e|---------------------------------------------------------------------------|
B|-----------------------5---5-----------------------------------------------|
G|---/14b17r14\5---------7b9-7-/7-5--0--2------------------------------------|
D|-------------------------------------dive whammy---------------------------|
A|---------------/12~~~------------------------------------------------------|
E|---------------------------------------------------------------------------|


  2.23 Seconds this octave repeats a lot in background
e|---------------------------------------------------------------------------|
B|---------------------------------------------------------------------------|
G|------5--7/8\7-------------------------------------------------------------|
D|----7----------------------------------------------------------------------|
A|--5------5/6\5-------------------------------------------------------------|
E|---------------------------------------------------------------------------|
  
 2.23 sec backing RTM 1            Rpt RTM1         Rpt RTM1
e|---------------------)------------------------------------------------------|
B|---------------------)------------------------------------------------------|
G|------5----------5---)----------------------3--5----------------------------|
D|----7-------8---5---5)---3---5-------------3--5------------3---5---7--------|
A|--5-------8----3---5-)--3---5-------------1--3-------------3---5---7--------|
E|--------6---------3--)-1---3-------------------------------1---3---5--------|


Solo slowbend
e|---------------------------------------------------------------------------|
B|---12b13----10p8----8------8-8---------------------------------------------|
G|-----------------9----9s7--- 7-7b8-7-5-6-----5b~~-------------------5~------|
D|-------------------------------------- ---5-7----7------5---7---5-7---7-5-7s|
A|---------------------------------------------------5/7---7---7-------------|
E|---------------------------------------------------------------------------|


                           (8)Hold
e|----------------------------------5-6-7-7b8--------------------------------|
B|-----------------5-6-7-7b8-8r7p5-------------------------------------------|
G|--5-5-6-6-7-7b9~-----------------------------------5--7--5--5--------------|
D|-----------------------------------------------5-7--7--7--7----------------|
A|---------------------------------------------------------------------------|
E|---------------------------------------------------------------------------|



e|---------------------------------------------------------------------------|
B|---------------------------------------------------------------------------|
G|---------------------------------------------------------------------------|
D|---------------------------------------------------------------------------|
A|---------------------------------------------------------------------------|
E|---------------------------------------------------------------------------| 

 Im tabbing like this so you can print the entire song in 1 page 
 You just need to put all the bits toghter , there all here .

All tabs done by criss Hart are for study only 


| /  slide up
| \  slide down
| h  hammer-on
| p  pull-off
| ~  vibrato
| +  harmonic
| x  Mute note