background
Alice Cooper Tablature: I Got A Line On You

I Got A Line On You

Words and music by
From the album Iron Eagle II Soundtrack (1989)
Transcribed by Eric Neveu (ericn@jonction.net)

  YEAH !

RIFF A

D-----2-----------5---7----------7---6-------
A-----0---PM--PM--3---5---0--0---5---4-------
E--------------------------------------------



RIFF B


D------2-----5------7-------
A------2-----5------7-------
E------0-----3------5-------



RIFF C

G----------------5------7----------7-------5--------2----
D------2---------5------7----------7-------5--------2----
A------2---------3------5----------5-------3--------0----
E------0-------------------------------------------------



RIFF D   (WITH HARMONIC)

D-----0--0--3--5---0--0--6--5--------
A------------------------------------
E------------------------------------



INTRO  WITH RIFF A

NOW, LET ME TAKE YOU BABE, DOWN TO THE RIVER BED     (RIFF A)

WELL, I GOT TO TELL YOU SOMETHING THAT'LL GO RIGHT TO YOUR HEAD   (RIFF A)

I GOT A LINE ON YOU BABE (REPEAT)           WITH RIFF B

NOW PUT YOUR ARMS AROUND ME, EVERY LITTLE BIT OF YOUR LOVE   (RIFF A)

OH YOU KNOW WHAT TO DO  I'LL MAKE LOVE TO YOU      (RIFF A)

YOU GOT THE RIGHT STUFF AND I DO TO    (RIFF A)

I GOT MY EYE ON YOU BABE ON YOUR VELVET SKIN    (RIFF C)
ETC.....      WITH (RIFF C)

DURING THE SOLO DO RIFF D

LISTEN TO IT AND PLAY IN THE SAME TIME, TO FIND THE GOOD VIBE