background
Alice Cooper Tablature: Hey Stoopid

Hey Stoopid (part 2)

Words and music by
From the album Hey Stoopid (1991)
Transcribed by ???

T= use tremelo bar   tap= finger tap   H= harmonic



    "Hey,  hey,  hey,  hey.   Hey, stoopid.      They win, you lose."
   Guitar one
E-|---8----11----15----13------8------11----8-\-------------------------------|
B-|--11b---14b---18b---16b----11b-----14b--11b\-------------------------------|
G-|---------------------------------------------------------------------------|
D-|---------------------------------------------------------------------------|
A-|---------------------------------------------------------------------------|
E-|---------------------------------------------------------------------------|
  |                                                                           |
  |Guitar two                                                                 |
E-|---------------------------------------------------------------------------|
B-|----------------------------------------------11b--11--8-------------------|
G-|----------------------------------------------------------10b-rb--8--10--8-|
D-|---------------------------------------------------------------------------|
A-|---------------------------------------------------------------------------|
E-|---------------------------------------------------------------------------|


    "Hey,  hey,  hey,  hey.     Hey, stoopid!"
   Guitar one
E-|---8----11----15----13-----------------------------------------------------|
B-|--11b---14b---18b---16b----------------------------------------------------|
G-|----------------------------------5--------5----5---5--5----5--5-----------|
D-|----------------------------------5--------5----5---5--5----5--5-----------|
A-|----------------------------------3--------3----3---3--3----3--3-----------|
E-|---------------------------------------------------------------------------|
  |                                                                           |
  |Guitar two                                                                 |
E-|---------------------------------------------------------------------------|
B-|--------------------8\-----------------------------------------------------|
G-|--10~~--10~~~~~-------------------5~~~~~~~~~~~~~~~~~~~~\1/10\--------------|
D-|---------------------------------------------------------------------------|
A-|---------------------------------------------------------------------------|
E-|---------------------------------------------------------------------------|


  Solo
   Guitar one
E-|---------------------------------------------------------------------------|
B-|---------------------------------------------------------------------------|
G-|---------------------------------------7--------------------7--7-----------|
D-|-----5--5---------5---7------------7---9--------------------7--7-----------|
A-|-----5--5---5--5--5---7------------7---9--------------------5--5-----------|
E-|-----3------3--3------5------------5---7-----------------------------------|
  |                                                                           |
  |Guitar two                                                                 |
E-|-----7~~----------------9~~-----10--9--10p7--------10----------------------|
B-|---------------------------------------------10--------10------------------|
G-|--7----------------7/9------------------------9b-----------(9)rb-p7--------|
D-|---------------------------------------------------------------------------|
A-|---------------------------------------------------------------------------|
E-|---------------------------------------------------------------------------|


   Guitar one
E-|---------------------------------------------------------------------------|
B-|---------------------------------------------------------------------------|
G-|---------------------------------------------------------------------------|
D-|----------------------5----------------------------7-----------------------|
A-|----------------------5----------------------------7-----------------------|
E-|----------------------3----------------------------5-----------------------|
  |                                                                           |
  |Guitar two                                                                 |
E-|------------------------------------7------7-------7-----------------------|
B-|-----------7--9--7----10b--<10>~~------10-----10b-----10--9--8--7--7h8p7---|
G-|-----9-----7--9--7---------------------------------------------------------|
D-|--9-----9------------------------------------------------------------------|
A-|---------------------------------------------------------------------------|
E-|---------------------------------------------------------------------------|


   Guitar one
E-|-------------------------------------------------------------------------------------|
B-|-------------------------------------------------------------------------------------|
G-|-------------------------------------------------------------------------------------|
D-|----------------------4------------------------------------4--4--4--4--4--4--4--4----|
A-|----------------------4------------------------------------4--4--4--4--4--4--4--4----|
E-|----------------------2-----2------2----2-----2--2---2--2--2--2--2--2--2--2--2--2----|
  |                                                                                     |
  |Guitar two                                                                           |
E-|-------------------------------------------------------------------------------------|
B-|------7------------------------------------------------------------------------------|
G-|--10-----10--9--10p9--7--6-----7------6h7p6------------------------------------------|
D-|----------------------------9------9----------9--7---------------------------7--7----|
A-|----------------------------------------------------9--8--7b-rb--5--7--5/9---9-----9-|
E-|-------------------------------------------------------------------------------------|


             "This ain't your daddy     talking.      You         know,
   Guitar one
E-|---------------------------------------------.-----------------------.-----|
B-|--------------------.------------------------3--.--------------.-----2--.--|
G-|--------------.-----4--.---------------.--.-----4--------.--.--2--.-----2--|
D-|--------.--.--5--.-----5---------.--.--5--5--------.--.--2--2-----2--------|
A-|--.--.--5--5-----5---------.--.--5--5--------------0--0--------------------|
E-|--3--3---------------------3--3--------------------------------------------|
  |                                                                           |
  |Guitar two                                                                 |
E-|---------------------------------------------------------------------------|
B-|---------------------------------------------------------2-----------------|
G-|---------------------------------------------------2-----2-----------------|
D-|--7h9~~~-------------------------------------------2-----2-----------------|
A-|---------------------------------------------------0-----0-----------------|
E-|---------------------------------------------------------------------------|


    "I know.                        Your   story      ain't so shocking."
   Guitar one
E-|---------------------------------------------------------------------------|
B-|---------------------------------------------.-----------------------.-----|
G-|--------.--.---------------------------.-----4--.--------------.--.--4-----|
D-|--.--.--2--2--.------------------.--.--5--.-----5--------.--.--5--5--------|
A-|--0--0--------0--5--4------.--.--5--5-----5--------.--.--5--5--------------|
E-|-----------------------5---3--3--------------------3--3--------------------|
  |                                                                           |
  |Guitar two                                                                 |
E-|---------------------------------------------------------------------------|
B-|---------------------------------------------------------------------------|
G-|---------------------------------4--------------4--------------------------|
D-|---------------------------------5--------------5--5-----5-----------------|
A-|-----------------5--4--0---------5-----------5-----5-----5-----------------|
E-|---------------------------3--3--3-----------------3-----3-----------------|


    "You          know,       I             know."
   Guitar one
E-|--------------------.------------------------.-----------------------------|
B-|--------------.-----2--.---------------.-----2--.--------------------------|
G-|--------.--.--2--.-----2---------.--.--2--.-----2--------------------------|
D-|--.--.--2--2-----2---------.--.--2--2-----2--------------------------------|
A-|--0--0---------------------0--0--------------------------------------------|
E-|---------------------------------------------------------------------------|
  |                                                                           |
  |Guitar two                                                                 |
E-|---------------------------------------------------------------------------|
B-|---------------------------------------------------------------------------|
G-|--------6------------------------------------------------------------------|
D-|--7-----7------------------7-----7-----------------------------------------|
A-|--7-----7------------------7-----7-----------------------------------------|
E-|--5-----5------------------5-----5-----------------------------------------|


    "Blow some steam.                                    Come on and scream!"
   Guitar one
E-|-----------------.--------2-----2--5-----------9------9--12--9--12--12b\----|
B-|--------.-----.--2-----2-----2-------------10-----10------------------------|
G-|-----.--2--.--2-----2------------------11-----------------------------------|
D-|-----4-----4----------------------------------------------------------------|
A-|--.-------------------------------------------------------------------------|
E-|--2-------------------------------------------------------------------------|
  |                                                                            |
  |Guitar two                                                             AH   |
E-|-----------------------------------------------------------------------14\/\|
B-|----------------------------------------------------------------------------|
G-|----------------------------------------------------------------------------|
D-|--4--4-----4--------------4--4---------4------------------------------------|
A-|--4--4-----4--------------4--4---------4------------------------------------|
E-|--2--2-----2--------------2--2---------2--------------6--6-------6----------|


    "Hey, hey, hey, hey.          Hey, stoopid. What ya trying to do?"
                                                                   pick scrape
E-|-------------------------------------------------------------------X\------|
B-|-------------------------------------------------------------------X\------|
G-|-----------------------------------------------------------------|
D-|---------------------------------------------------------------------------|
A-|-----------------------------------------------------6~~~------------------|
E-|---------------------------------------------------------------------------|


    "Hey, hey, hey, hey. Hey, stoopid.   They win, you lose.  Hey, hey,
   Guitar one
E-|------------------------------------------------------------8------8-------|
B-|-----------------------------------------------------------11b----11b------|
G-|---------------------------------------------------------------------------|
D-|---------------------------------------------------------------------------|
A-|---------------------------------------------------------------------------|
E-|---------------------------------------------------------------------------|
  |                                                                           |
  |Guitar two                                                                 |
E-|--8~~~~~~~~~~~~~~~~~~~~~~--------------------------------------------------|
B-|---------------------------------------------------------------------------|
G-|---------------------------------------------------------------------------|
D-|-------------------------------------3b-rb-b-rb-p1h3p1b--------------------|
A-|-----------------------------------------------------------3~~~~~~~~~~~----|
E-|---------------------------------------------------------------------------|


    "hey,     hey.
   Guitar one        T
E-|-------8-------10-\--------------------------------------------------------|
B-|------11b------13b\--------------------------------------------------------|
G-|---------------------------------------------------------------------------|
D-|---------------------------------------------------------------------------|
A-|---------------------------------------------------------------------------|
E-|---------------------------------------------------------------------------|
  |                                                                           |
  |Guitar two                                                                 |
E-|---------------------------------------------------------------------------|
B-|---------------------------------------------------------------------------|
G-|---------------------------------------------------------------------------|
D-|---------------------------------------------------------------------------|
A-|-----------------------------------------------------------------|
E-|---------------------------------------------------------------------------|


  End w/Rhythm figure one
    "Hey, hey,  hey,   hey.         Hey,  Stoopid.      What ya tryin' to do?"
                             w/Fill three
   Guitar one                                           T                T
E-|----8-----11----15----13---------------11------------H----------------H----|
B-|---11b----14b---18b---16b~~~-----11~~-------13~~-----9---------------11\---|
G-|---------------------------------------------------------------------------|
D-|---------------------------------------------------------------------------|
A-|---------------------------------------------------------------------------|
E-|---------------------------------------------------------------------------|
  |                                                                           |
  |Guitar two                                                                 |
E-|---------------------------------------------------------------------------|
B-|--------------------------T------------------------------------------------|
G-|--------------------------H---------------------------T---------------T----|
D-|-------------------------14\-------------------------15--------------17----|
A-|---------------------------------------------------------------------------|
E-|---------------------------------------------------------------------------|

  Fill three
E-|-----------|
B-|-----------|
G-|---T-------|
D-|---H-------|
A-|--14\------|
E-|-----------|



    "Hey, hey,  hey,   hey.        Hey,  Stoopid.  They win, you lose."
   Guitar one
E-|----8-----11----15----13---------------------------------------------------|
B-|---11b----14b---18b---16b~~~-----------------------------------------------|
G-|---------------------------------------------------------------------------|
D-|---------------------------------------------------------------------------|
A-|---------------------------------------------------------------------------|
E-|---------------------------------------------------------------------------|


    "Hey, hey,  hey,   hey."
     w/Fill four
   Guitar one
E-|----8-----11----15----13------T--------------------------------------------|
B-|---11b----14b---18b---16b~~~--H--------------------------------------------|
G-|------------------------------2\-------------------------------------------|
D-|---------------------------------------------------------------------------|
A-|---------------------------------------------------------------------------|
E-|---------------------------------------------------------------------------|

  Fill four
E-|---------------|
B-|---T-----------|
G-|---H-------T---|
D-|--14------17\--|
A-|---------------|
E-|---------------|



    "Hey,        hey,  hey,   hey.                         Hey,  Stoopid."
   Guitar one
E-|----------------------------8-------------8~~---8-------8-------8----------|
B-|--11b--<11>~~-----11b--11b-----11b---11b-----------11b-----11b-----11b-----|
G-|---------------------------------------------------------------------------|
D-|---------------------------------------------------------------------------|
A-|---------------------------------------------------------------------------|
E-|---------------------------------------------------------------------------|
  |                                                                           |
  |Guitar two                                                                 |
E-|---------------------------------------------------------------------------|
B-|--------------------------------------T------------------------------------|
G-|--------------------------------------H------------------------------------|
D-|-------------------------------------14\-----------------------------------|
A-|---------------------------------------------------------------------------|
E-|---------------------------------------------------------------------------|


                                                    "What    ya     tryin'
   Guitar one
E-|--8-------8-------8-------8-------8-------8-------8-------8-------8--------|
B-|-----11b-----11b-----11b-----11b-----11b-----11b-----11b-----11b-----11b---|
G-|---------------------------------------------------------------------------|
D-|---------------------------------------------------------------------------|
A-|---------------------------------------------------------------------------|
E-|---------------------------------------------------------------------------|
  |                                                                           |
  |Guitar two                                                                 |
E-|---------------------------------------------------------------------------|
B-|---------------------------------------------------------------------------|
G-|-----------------------------------------------------------T---------------|
D-|----------------------------------------------------------15---------------|
A-|---------------------------------------------------------------------------|
E-|---------------------------------------------------------------------------|


    "to      do?            Hey, hey, hey, hey.       If you do that,
   Guitar one        T                             T
E-|--8-------8-------8\-----18b~~~--------<18>---<18>---<18>------------------|
B-|-----11b-----11b-----------------------------------------------------------|
G-|---------------------------------------------------------------------------|
D-|---------------------------------------------------------------------------|
A-|---------------------------------------------------------------------------|
E-|---------------------------------------------------------------------------|
  |                                                                           |
  |Guitar two                                                                 |
E-|---------------------------------------------------------------------------|
B-|---------------------------------------------------------------------------|
G-|-----------T---------------------------------------------------------------|
D-|----------17\--------------------------------------------------------------|
A-|---------------------------------------------------------------------------|
E-|---------------------------------------------------------------------------|


                                              "they  win      you      lose."
E-|--15-14-16-21-16-14-21-19-16-14-21-19-16-14-21-19-16-14-23-19-16-14-23-19--|
B-|-----------tap------tap---------tap---------tap---------tap---------tap----|
G-|---------------------------------------------------------------------------|
D-|---------------------------------------------------------------------------|
A-|---------------------------------------------------------------------------|
E-|---------------------------------------------------------------------------|


    "                    Hey,  hey,  hey,   hey.        Hey,  Stoopid."
E-|--16-14-23-19---------18b---18b---<18>---<18>~~~~--------------------------|
B-|--------tap----------------------------------------------------------------|
G-|---------------------------------------------------------------------------|
D-|---------------------------------------------------------------------------|
A-|---------------X\----------------------------------------------------------|
E-|---------------X\----------------------------------------------------------|