background
Alice Cooper Tablature: Hallowed My My Name

Hallowed By My Name

Words and music by Neal Smith
From the album Love It To Death (1971)
Transcribed by Brian Gaddis. Thanks to Bryan Dongray for the lyrics.

x= mute  b= bend  rb= reverse bend  h= hammer-on  p= pull-off  /= slide up

  t= trill


    "Smalt on carp.(?) Don't count your carps before they hatch."
E-|----------------------------------------------------------------------------|
B-|----------------------------------------------------------------------------|
G-|--3t4-----------------------------------------------------------------------|
D-|----------------------------------------------------------------------------|
A-|----------------------------------------------------------------------------|
E-|----------------------------------------------------------------------------|


              Gm                  C                  Gm                 C
E-|----------------------------------------------------------------------------|
B-|-----x--x--3--3---x--x--x--x---------x--x--x--x---3--3---x--x--x--x---------|
G-|-----x--x--3--3---x--x--x--x---5--5--x--x--x--x---3--3---x--x--x--x--5--5---|
D-|--x--x--x--5--5---x--x--x--x---5--5--x--x--x--x---5--5---x--x--x--x--5--5---|
A-|--x--x--x--5--5---x--x--x--x---3--3--x--x--x--x---5--5---x--x--x--x--3--3---|
E-|--x--x--x--3--3---x--x--x--x---------x--x--x--x---3--3---x--x--x--x---------|


   "Gather 'round right now and hear me whisper the words of the prisons, the
   "Come all you  sinners, now in your  glory   and my ears will listen  to
   "Sluts and the hookers have taken your money. The queens are out dancing, but
E-|----------------------------------------------------------------------------|
B-|-x--x--x--x----3-----3---x--x--x--x-----------x---x---x---x---3---3---x-----|
G-|-x--x--x--x----3-----3---x--x--x--x---5---5---x---x---x---x---3---3---x-----|
D-|-x--x--x--x----5-----5---x--x--x--x---5---5---x---x---x---x---5---5---x-----|
A-|-x--x--x--x----5-----5---x--x--x--x---3---3---x---x---x---x---5---5---x-----|
E-|-x--x--x--x----3-----3---x--x--x--x-----------x---x---x---x---3---3---x-----|


   "words of laughter. The lords and the ladies were fixing their hair-dos."
   "your dirty stories.You're fighting to go up 'cause you're on your way down."
   "now it's not funny 'cause there goes one walking away with your sonny."
E-|----------------------------------------------------------------------------|
B-|-x--x--x------------x---x----x----x---3---3---x---x---x---x-----------------|
G-|-x--x--x--5----5----x---x----x----x---3---3---x---x---x---x-----5----5------|
D-|-x--x--x--5----5----x---x----x----x---5---5---x---x---x---x-----5----5------|
A-|-x--x--x--3----3----x---x----x----x---5---5---x---x---x---x-----3----3------|
E-|-x--x--x------------x---x----x----x---3---3---x---x---x---x-----------------|



  Chorus (After third time go to End.)
   "Cursing their lovers.   Cursing the Bible.     Hallowed be my name."
E-|----------------------------------------------------------------------------|
B-|-----------------------------------------------------3---------3------------|
G-|------------------------------------------------7----3---7-----3------------|
D-|------------------------------------------------7----5---7-----5------------|
A-|----3----5-----4--3---------3----5---4--3-------5----5---5-----5------------|
E-|-6-----------------------6---------------------------3---------3------------|


   "Yelling at fathers.     Screaming at mothers.  Hallowed be my name."
E-|----------------------------------------------------------------------------|
B-|-----------------------------------------------------3---------3------------|
G-|------------------------------------------------7----3---7-----3------------|
D-|------------------------------------------------7----5---7-----5------------|
A-|----3----5--4--3--------------3----5--4--3------5----5---5-----5------------|
E-|-6----------------------6----------------------------3---------3------------|


   Guitar one                                                  Go to verse two
E-|--11---11------11--12---12-------12-------12--13---13--------15----------22-|
B-|--14b------14------15b------15b------15b------16b------16b-------18--15-----|
G-|----------------------------------------------------------------------------|
D-|----------------------------------------------------------------------------|
A-|----------------------------------------------------------------------------|
E-|----------------------------------------------------------------------------|
  |                                                                            |
  |Guitar two                                                  Go to verse two |
E-|-------------------5--------------------------6-----------------------------|
B-|-------------------5--------------------------6-----------------------------|
G-|--5----------------6--------------------------7-----------------------------|
D-|--6----------------7--------------------------8-----------------------------|
A-|--6----------------7--------------------------8-----------------------------|
E-|--4----------------5--------------------------6-----------------------------|



   Solo (Strum Em behind this. May also be another chord.)
E-|----------------------------------------------------------------------------|
B-|----------------------------------------------------------------------------|
G-|--7/9--7h9--9/12--9--12--12/14--14b-rb-p12-------7/9--7h9--9/12--9--12------|
D-|--------------------------------------------14------------------------------|
A-|----------------------------------------------------------------------------|
E-|----------------------------------------------------------------------------|

                              Fill (Drop last note with tremelo bar.)
E-|-------------------------|--------------------------------------------------|
B-|-------------------------|----8--10--10-{feedback}--------------------------|
G-|--12/14--14b-rb-p12------|-9------------------------------------------------|
D-|---------------------14--|--------------------------------------------------|
A-|-------------------------|--------------------------------------------------|
E-|-------------------------|--------------------------------------------------|



   Guitar one                                                 Go to verse three
E-|----------------------------------------------------------------15--------22|
B-|--13---13---13-------14---14--14-------14----------15--15----------18--15---|
G-|--15b--15b------15b--16b----------16b------16b-rb--17b-----17b--------------|
D-|----------------------------------------------------------------------------|
A-|----------------------------------------------------------------------------|
E-|----------------------------------------------------------------------------|
  |                                                                            |
  |Guitar two                                                 Go to verse three|
E-|----------------------------------------------------------------------------|
B-|--1------------------2------------------------------3-----------------------|
G-|--2------------------3------------------------------4-----------------------|
D-|--3------------------4------------------------------5-----------------------|
A-|--3------------------4------------------------------5-----------------------|
E-|--1------------------2------------------------------3------------------/15\-|


   End  (Tremelo bar effects not transcribed.)
E-|----------------------------------------------------------------------------|
B-|----------------------------------------------------------------------------|
G-|----------------------------------------------------------------------------|
D-|----------------------------------------------------3--4--5-----------------|
A-|-----3--5--4--3---4--3---------------3--5--4--3--5--------------------------|
E-|--6---------------------6--3----/6------------------------------------------|


E-|----------------------------------------------------------------------------|
B-|----------------------------------------------------------------------------|
G-|----------------------------------------------------------------------------|
D-|----------------------------------------------------3--4--5-----------------|
A-|-----3--5--4--3---4--3---------------3--5--4--3--5--------------------------|
E-|--6---------------------6--3----/6------------------------------------------|



E-|---------------------------------------------------(15)----------(22)-------|
B-|-------------------------------------------------------(18)--(15)-----------|
G-|----------------------------------------------------------------------------|
D-|-----------------------------------------------------5---3------------------|
A-|-----3--5--4--3---4--3--------------3--5--4--3-----------------5------------|
E-|--6---------------------6--3----/6---------------------------------3--------|