background
Alice Cooper Tablature: Give It Up

Give It Up

Words and music by
From the album Constrictor (1986)
Transcribed by François Simard

(tuned down  1/2 steps)

Put PM on the open chord

Figure:1 repeat x2
------------------------------------------------------------------------------
-----------------------------------------------------------------3----3-------
-----2-----2-----2-----2------------------2-----2-----2-----2----2----0-------
-----------------------------------------------------------------0----0-------
--0-----0-----0-----0------------------0-----0-----0-----0------------3-------
--------------------------0--3^-0--3^-----------------------------------------


figure:2   repeat x2
----3---------------------------------------3---------------------------------
-3--3----------------------------------3----3---------------------------------
-2--0-------------------2--------------2----0---------------------------------
-0----------------------2--------------0--------------------------------------
------------------------0---3--2--0-------------------------------3--2--0-----
------------0--3--0--3-----------------------------0--3--0--3--0--------------


            (not sure here)
-----------------------------------------------------harm---------------------
------------------3-----------3-----------3----------5----~~~~~~~~~~~~~~------
---------------0-----------0-----------0-------------5----~~~~~~~~~~~~~~------
------------------------------------------------------------------------------
--3--2--0---3----------2-----------3------------------------------------------
------------------------------------------------------------------------------


begin figure:3  to talk
------------------------------------------------------------------------------
----3------3------------------------------------------------------------------
----2------2------------------------------------------------------------------
----0------2------------------------------------------------------------------
00-----00-----------AH--------------------------------------------------------
----------------3^0-3^--------------------------------------------------------