background
Alice Cooper Tablature: Generation Landslide

Generation Landslide

From the album Billion Dollar Babies
Transcribed by DoteStudios

Keys
b = bend
r = release
\ = slide up neck 
/ = slide down neck
h = hammer-on
p = pull-off
~ = hold note
D = pick down
U = pick up


E-7---7--------5---5--------3---3--------7---8-8-7----7---7------|
B---6---6--------6---6--------3---3--------8------------6---6----|
G---------7------------5------------0-------------------------7--|
D----------------------------------------------------------------|
A----------------------------------------------------------------|
E----------------------------------------------------------------|


E-5---5--------0---0-------------|
B---6---6--------1---1-----------|
G---------5------------0---------|
D-------------------------5-3~~~-|
A-------------------------5-3~~~-|
E-------------------------3-1~~~-|

“La da da dada”

E--------------------|
B-----------3--1-----|
G-----------2--0~~~--| 2x
D-5-5-5\----3--2~~~--|
A-5-5-5\-------3~~~--|
E-3-3-3\-------------|

“Please clean your plate, dear
The Lord above can see ya
Don't you know people are starving in Korea?
Alcohol and razor blades and poison and needles
Kindergarten people - they use them, they need them
The over-indulgent machines were their children
There wasn't a way down on Earth here to cool them
'Cause they looked just like humans, at Kresge's and Woolworth's
But decadent brains were at work to destroy
Brats in batallions were ruling the streets
Saying generation landslide closed the gap between them”

Rhythm Guitar (solo)
E-3----------|
B-3----3--1--|
G-0----2--0--| 10x
D-0----3--2--|
A-2-------3--|
E-3----------|



“And I laughed to myself at the men and the ladies
Who never conceived of us billion dollar babies
La da da dada”
E-7------5------3------7------7------5------0-----------|
B---6------6------3------8------6------6------1---------|
G-------------------------------------------------------|
D------------------------------------------------5-3~~~-|
A------------------------------------------------5-3~~~-|
E------------------------------------------------3-1~~~-|

Solo 1  
Guitar 1 (Glen Buxton)
  D U D  D U D U  D U
E-3-3-3--3-3-3-3--3-3-|
B---------------------|
G---------------------| repeat many times
D---------------------|
A---------------------|
E---------------------|

Guitar 2 (Michael Bruce)
E-3----1-----|
B-3----1--1--|
G-0----2--0--| 3x
D-0----3--2--|
A-2----3--3--|
E-3----1-----|

“Militant mothers hiding in their basements
Using pots and pans as thier shields and their helmets
Molotov milk bottles heaved from pink high chairs
While Mother's Lib burned birth certificate papers
Dad gets his allowance from his sonny the dealer
Who's pubic to the world but involved in high finance
Sister's out till five doing banker's son's hours
But she owns a Maserati that's a gift from his father
Stopped at full speed at one hundred miles per hour
The Colgate invisible shield finally got 'em”

E-3~~~-------|
B-3~~~-3--1--|
G-0~~~-2--0--| 10x
D-0~~~-3--2--|
A-2~~~----3--|
E-3~~~-------|

“But I laughed to myself at the men and the ladies
Who never conceived of us billion dollar babies
La da da dada”
E-7------5------3------7------7------5------0-----------|
B---6------6------3------8------6------6------1---------|
G-------------------------------------------------------|
D------------------------------------------------5-3~~~-|
A------------------------------------------------5-3~~~-|
E------------------------------------------------3-1~~~-|


During Harmonica Solo
  D D D   D D   D U D  D D D   D D   D U D   D D D   D D   D U D
E-3-3-3---1-1---3-3-3--1-1-1---3-3---1-1-1---3-3-3---1-1---3-3-3-----|
B-3-3-3---1-1---3-3-3--1-1-1---3-3---1-1-1---3-3-3---1-1---3-3-3-----|
G-0-0-0---2-2---0-0-0--2-2-2---0-0---2-2-2---0-0-0---2-2---0-0-0-----|
D-0-0-0---3-3---0-0-0--3-3-3---0-0---3-3-3---0-0-0---3-3---0-0-0-----|
A-2-2-2---3-3---2-2-2--3-3-3---2-2---3-3-3---2-2-2---3-3---2-2-2-----|
E-3-3-3---1-1---3-3-3--1-1-1---3-3---1-1-1---3-3-3---1-1---3-3-3-----|


  D D D   D D   D U D   D D D   D D   D U D   D D D   D D   D U D 
E-1-1-1---3-3---1-1-1---3-3-3---1-1---3-3-3---1-1-1---3-3---1-1-1-----|
B-1-1-1---3-3---1-1-1---3-3-3---1-1---3-3-3---1-1-1---3-3---1-1-1-----|
G-2-2-2---0-0---2-2-2---0-0-0---2-2---0-0-0---2-2-2---0-0---2-2-2-----|
D-3-3-3---0-0---3-3-3---0-0-0---3-3---0-0-0---3-3-3---0-0---3-3-3-----|
A-3-3-3---2-2---3-3-3---2-2-2---3-3---2-2-2---3-3-3---2-2---3-3-3-----|
E-1-1-1---3-3---1-1-1---3-3-3---1-1---3-3-3---1-1-1---3-3---1-1-1-----|

Solo 2
E---------------------------------------------------------------------|
B----------10---------------------------------------------------------|
G----12~~~----12p10-9----9-10-10p9---------14-12-14-14b16-14b16-------|
D----12~~~------------12-----------12---------------------------------|
A-10----------------------------------10~~----------------------------|
E---------------------------------------------------------------------|