background
Alice Cooper Tablature: From The Inside

From The Inside

Words and music by Cooper, Taupin, Wagner, Foster
From the album From The Inside (1978)
Transcription by Criss Hart
Email: voyager2@bigpond.net.au

 

  Open A note listen how its played , repeats thru out song  
e|---------------------------------------------------------------------------|
B|---------------------------------------------------------------------------|
G|-----------------------------------------------------------5-----r---------|
D|-------------------------------------------------------Harmonic------------|
A|-0--0-0--0--0-0--0--0-0--0--0-0---3-4--------------------------------------|
E|---------------------------------------------------------------------------|



e|---------------------------------------------------------------------------|
B|---------------------------------------------------------------------------|
G|-S2 12-11--/14-----12------12-12-12--12-11-/14-----11---12-11-14----11--12~|
D|--------------14------14----------------------14-----14----------14---14---|
A|---------------------------------------------------------------------------|
E|---------------------------------------------------------------------------|


                                    (44 sec rpt's quit)  1.26 sec 
e|---------------------------------------------------------------------------|
B|-20---20--20-ring---20--------------------------------12#-----15b17r15913--|
G|-19b21----19b21r19--17---------------------------------------------------14|
D|------------------------19\-------7\ with wide vibrato---------------------|
A|---------------------------------------------------------------------------|
E|---------------------------------------------------------------------------|

   I never dreamed that I would wind up on the losing end 

e|---------------------------------------------------------------------------|
B|---------------------------------------------------------------------------|
G|---------------------------------------------------------------------------|
D|----------------------------------------------------7----------------------|
A|-------------------------------0--------2---3---4---5----------------------|
E|---------------------------------------------------------------------------|


    
    I'm stuck here on the inside looking out   I'm just another case

e|---------------------------------------------------------------------------|
B|---------------------------------------------------------------------------|
G|---------------------------------------------------------------------------|
D|-------------------------9-----------------7-----------------------5-------|
A|-------------------------7-----------------5-----------------------3-5-7---|
E|---------------------------------------------------------------------3-5---|



    Where's my makeup, where's my face   On the inside
  
e|---------------------------------------------------------------------------|
B|---------------------------------------------------------------------------|
G|---------------------------------------------------------------------------|
D|--7--------------------9---------------------------------------------------|
A|--5--------------------7--------------------------3--2---------------------|
E|--------------------------------------------------------0------------------|

 
  2.23 sec   repeat          2.56 Sec
e|---------------------------------------------------------------------------|
B|---------------------------------------------------------------------------|
G|-------------------------------2/---12-11-/14-------7b9-7b9-7b9-7b9r7p5-7--|
D|---------------------------------------------14---------------------------5|
A|--3-2----------------------------------------------------------------------|
E|---------0--4-5---3-2------------------------------------------------------|



e|---------------------------------------------------------15-17-------------|
B|-----------------------10---------15--------17----17b19--------17b19r17b19~|
G|--/12-11-/14--------9b11----14b116-----16b18-------------------------------|
D|-------------14------------------------------------------------------------|
A|---------------------------------------------------------------------------|
E|---------------------------------------------------------------------------|

   # Whammy Dive
| /  slide up
| \  slide down
| h  hammer-on
| p  pull-off
| ~  vibrato
| +  harmonic
| x  Mute note