background
Alice Cooper Tablature: Freedom

Freedom

Words and music by
From the album Raise Your Fist And Yell (1988)
Transcribed by François Simard

Don't forget to put tremolo effect in the tune dude!!!*

intro.
+= slide your finger on the string to produce harmonic effects with fast
   tem.pick.
-----------------------------------------------------------------------------
--H--------------------------------------------------------------------------
-(7)-^^^^^^+-----------------------------------------------------------------
-----------------------------------------------------------------------------
-----------------------------------------------------------------------------
-----------------------------------------------------------------------------


-----------------------------------------------------------------------------
-----------------------------------------------------------------------------
-------5------7-----5---------------5------5--------5-------5--------7-------
-------7------7-----7---------------5------4--------3-------7--------7-------
--000----000----000-----000000000------00------00-------000-----000----------
-----------------------------------------------------------------------------


-----------------------------------------------------------------------------
------------H--------H-----*-------------------------------------------------
--------5---7^^^^\\ 10^^^^/--------------------------------------------------
--------7--------------------------------------------------------------------
--000------------------------------------------------------------------------
-----------------------------------------------------------------------------


We the people...
-----------------------------------Harmonic ---------------------------------
-----------------------------------7-----------------------------------------
------5-------7-------5--------5-----7---7^^^^-------------------------------
------7-------7-------7--------5-------7-------------------------------------
-000----000-----000-----00000------------------------------------------------
-----------------------------------------------------------------------------


Stop pretending....
-----------------------------------------------------------------------------
-----------------------------------------------------------------------------
-2------2-------2-----------5-----5-----5-5----------------------------------
-2------2-------2-----------5-----5-----5-5---5--5-----3----5---6---7--------
-0-000----000-----0-2-3^----3-3-3-3-3-3-3-3---5--5-----3----5---6---7--------
----------------------------------------------3--3-----1----3---4---5--------


cause I never walk away....    (lightly PM)    2 time
---------------------------------------|-------------------------------------
------1------1---------1------1--------|---------5-----5---5-----------------
----2------2---------0------0----------|---------5-----5---5-----------------
--3------3------3--2------0------------|------0-----0------0-----------------
---------------------------------------|-------------------------------------
---------------------------------------|-------------------------------------


Freedom raise your....                               2 time
--------------------------------------------------|--------------------------
--------------------------------------------------|--------------------------
-----5-----7-----5----------5--5---------5--5-----|--------------------------
-----7-----7-----7----------5--5---------3--3-----|-------3---5--------------
-000---000---000--------0-----------0-------------|-------3---5--------------
--------------------------------------------------|-------1---3--------------