background
Alice Cooper Tablature: For Veronica's Sake

For Veronica's Sake

Words and music by Cooper, Taupin, Wagner
From the album From The Inside (1978)
Transcription by Criss Hart
Email: voyager2@bigpond.net.au

 
  Intro 
e|---------------------------------------------------------------------------|
B|---------------------------------------------------------------------------|
G|---------------------------------------------------------------------------|
D|---------------1--2--/3--4-- X2 ------2-------2~~~~~-----------------------|
A|--0--2--/4--5-------------------------2------------------------------------|
E|--------------------------------------0------------------------------------|


   I got a name and number    Verse              I got a dog in the city pound 

e|---------------------------------------------------------------------------|
B|-----------------------------------------8---8-----7----------2------------|
G|-----------------------------------------7---7--0--7----------2------------|
D|----------------5b-------------- X 2 ----5---5--0--5----------0----------2-|
A|---/7----5---7--------7--5--7--------------------------------------------2-|
E|-------------------------------------------------------------------------0-|



e|---------------------------------------------------------------------------|
B|---------------------------------------------------------------------------|
G|---7-6-5-4-----------------------------------------------------------------|
D|-------------repeat---Verse-----2------------------------------------------|
A|---5-4-3-2----------------------2-----7-7-6-5------------------------------|
E|--------------------------------0-----------------/-\----------------------|


   So for Veronica's sake I gotta get out of here ( Chrous ) 
e|---------------------------------------------------------------------------|
B|---------------------------------------------------------------------------|
G|--2-----------------------2--2---1-----------------9--x-x-x-9-x-x-9--------|
D|--2-----------------2----------------4---0---------9--x-x-x-9-x-x-9--------|
A|--0-----0---3---4----------------------------------7--x-x-x-7-x-x-7--------|
E|---------------------------------------------------------------------------|

                                                 And I can see her howling   

e|---------------------------------------------------------------------------|
B|---------------------------------------------------------------------------|
G|--4-------4---2-2----------------------------------------------------------|
D|--4-------4---2-2----2-----------------------------------------------------
A|--2--5-6------0-0----2--------------0-1-2-3 ~ ~ ~ ~ ~ ~ ~ ~ ~ ~ ~ ~ ~ ~ ~ ~|
E|---------------------0------0-2-3-4--------------------------------------- |


  all night at the lonely moon               They're going to give her the      
e|---------------------------------------------------------------------------|
B|---------------------------------------------------------------------------|
G|---------------------------------------------------------------------------|
D|------------------------------4-5-4h5p4s2~---------------------------------|
A|  ~ ~ ~ ~ ~ ~ ~ ~ ~ ~ ~ ~ ~------------------------------------------------|
E|---------------------------------------------------------------------------|

  gas if I don't get there soon              I gotta get there soon 

e|---------------------------------------------------------------------------|
B|---------------------------------------------------------------------------|
G|----------------------------------------------------2----2-----2-----------|
D|----------------------------------------------------2----2-----2-----------|
A|--3-----2-h3p2---------------1--0-----1-------------0----0-----0-----------|
E|------------------------------------3-------0---3--------------------------|


  For Veronica's sake I gotta get out of here               2.43 with variations

e|---------------------------------------------------------0-0-0-0-0---------|
B|----3--3--3----------------------------2--2--2-----------5-5-5-3-0---------|
G|----2--2--2----------------------------2--2--2-------------------4---------|
D|----4--4--4----------------------------0- 0--0-----------------------------|
A|---------------------------------------------------------------------------|
E|---------------------------------------------------------------------------|


| /  slide up
| \  slide down
| h  hammer-on
| p  pull-off
| ~  vibrato
| +  harmonic
| x  Mute note