background
Alice Cooper Tablature: Feed My Frankenstein

Feed My Frankenstein

Words and music by
From the album Hey Stoopid (1991)
Transcribed by François Simard

(tuned down 1/2 step)


intro.
------------------------------------------------------------------------------
------------------------------------------------------------------------------
---999------------------------------------------------------------------------
---999------------------------------------------------------------------------
---777------------------------------------------------------------------------
-----------0-3---5-3-0---0-0-3--7--5--7---0--3---5-3-0------------------------


                                                  when begin to talk.
------------------------------------------------------------------------------
------------------------------------------------------------------------------
------------5-----5-----5-----7----5------------------------------------------
------------5-----5-----5-----7----5------------------------------------------
--7-7-7-7------7-----7-----7--------------------------------------------------
--------------------------------------------------0-0--0--000--000--000-[etc]-


figure:2
------------------------------------------------------------------------------
------------------------------------------------------------------------------
------------------------------------------------------------------------------
------------------------------------------------------------------------------
--0-0-3^---0-0-3^---0-0-3^-----------0-0-3^--0-0-3^---3-4-5-6-7-8-------------
----------------------------3-3-3-3-------------------------------------------

During the interlude part do some scratching and tapping
picking over the pick up for the special effects.