background
Alice Cooper Tablature: Dirty Diamonds

Dirty Diamonds

Words and music by
From the album Dirty Diamonds (2005)
Transcribed by ???

This is the Title track from Alice Coopers ne 2005 album.

I have only got the verse and chorus but here goes:-


-Verse-

e------------------------------------|------------------------|
b------------------------------------|------------------------|
g------------------------------5-7---|---7-5------------------|
d--7-7-7-7-7-7-7-7-7-7-7---5-7-------|-------7-5--------------|
a--7-7-7-7-7-7-7-7-7-7-7-------------|------------------------|
E--5-5-5-5-5-5-5-5-5-5-5-------------|---------instead--------|
On last verse riff before chorus play


-Chorus-

e-------------------------------------------------------------------|
b-------------------------------------------------------------------|
g-------------------------------------------------------------------|
d--7777--3333--10101010--5555---x3-then----555555555555-------------|
a--5555--1111--8-8-8-8---3333--------------555555555555-------------|
E------------------------------------------333333333333-------------|