background
Alice Cooper Tablature: Die For You

Die For you

Words and music by
From the album Hey Stoopid (1991)
Transcribed by ???

E ------------------------------------------------------------------
B ------------------------------------------------------------------
G --11--7-----11--7----11--7------------------7--4-----6-------6h7p6
D ---------7---------7--------9-----11--7-----------4-------7-------
A -------------------------------9---------9------------------------
E ------------------------------------------------------------------


E---------------------
B---------------------
G----6--7--4----------:2x And that all for the moment
D-7-------------------
A---------------------
E---------------------