background
Alice Cooper Tablature: Didn't We Meet

Didn't We Meet

Words and music by Alice Cooper, Dick Wagner, Bob Ezrin
From the album Goes To Hell (1976)
Transcribed by Rory MacKenzie

Drop D
  Intro(1x)/Verse             1,2 ___________________________________________
||:-------------|-------------|--------------|------0-------|------0-------:||
||:--7--6-7-----|--5--4-5-----|---3--2-3--0--|0^1------1----|0^1------1----:||
||:--7--6-7-----|--5--4-5-----|---4--3-4--0--|----2------2--|----2------2--:||
||:----------0--|----------0--|-----------0--|-----------0--|-----------0--:||
||:-------------|-------------|--------------|--------------|--------------:||
||:0------------|0------------|0-------------|0-------------|0-------------:||

1. Pardon me but you see I've seen that face before
   I know those eyes unearthly wise I feel it more and more
   To Look At You Deja Vu =>
2. (somewhere) -----------------------------------
   Gradu'lly I can see things are getting clear
   that angel's face  satanic grace =>
3. -----------------------------------------------
   Here I am the door's been slammed they're gonna roast my hide
   and make me bleed until I plead  =>

3._____________________________________________
              Am             
|---------------|--------------|---------------
|---3--2-3--0-1-|--------------|---------------
|---4--3-4--0-2-|--------------|---------------
|-----------0---|--------------|---------------
|---------------|0---0-0---0-0-|0-0-0-0-0-0-0-0
|0--------------|--------------|---------------
 chills me to the core             They say that
 this sudden rush of fear          They say that
 for you to let me die             They say that

   E               D/E            A     D   A     E       2x
   ||||\           ||  |\         |     |   |             
||:-------------|--------------|---------------|----------:|| 
||:-------------|--------------|---------------|----------:|| 
||:9-9-9-9\-----|7-7---7\------|2---7---2------|9---------:|| 
||:9-9-9-9\-----|7-7---7\------|2---7---2------|9---------:|| 
||:7-7-7-7\-----|7-7---7\------|0---5---0------|7---------:|| 
||:-------------|--------------|---------------|----------:|| 
1. you are the king of this whole damn thing but they only confused me   The said I
   don't stand a ghost of a chance with my host and it frankly amused me           So
2. your are the king of this whole damn thing now they got me beleivin'    The said I
   don't stand a ghost of a chance with my host so I better be leavin'             So
3. your are the king of this whole damn thing now they got me beleivin'    The said I
   don't stand a ghost of a chance with my host God wish I was leavin'             So 

D               |D#o7          |A     C#       |F#m         Last Time to % 
5---------------|x-------------|0------4--------|9----------| 
7---------------|7-------------|2------6--------|10---------| 
7---------------|5-------------|2------6--------|11---------| 
7---------------|7-------------|2------6--------|11---------| 
5---------------|6-------------|0------4--------|9----------| 
----------------|x-------------|----------------|-----------|            
let's drink a few 'cause lookin' at you I swear

 G             Bm             F#m     A       D    A 
|10-----------|7-------------|2-------0------|2----0-----| 
|12-----------|7-------------|2-------2------|3----2-----| 
|12-----------|7-------------|2-------2------|2----2-----| 
|12-----------|9-------------|4-------2------|4----2-----| 
|10-----------|--------------|--------0---4--|-----0-----| 
|-------------|--------------|---------------|-----------| 
  Didn't we meet in the night in my sleep somewhere?		 2x to % 
									 last time to %%
1.___________________________ To Verse 2
 G             Bm             
|10-----------|7-------------:|| 
|12-----------|7-------------:|| 
|12-----------|7-------------:|| 
|12-----------|9-------------:|| 
|10-----------|--------------:|| 
|-------------|--------------:|| 
 Didn't we meet in the night in my sleep (somewhere?)

2._____________________________________________________________________
F#m     A       D    A        C     G       E    A         F#m   A  
2-------0------|2----0-----|3-----3------|0----0---------|2-----0-------| 
2-------2------|3----2-----|5-----3------|0----2---------|2-----2-------| 
2-------2------|2----2-----|5-----4------|1----2---------|2-----2-------| 
4-------2------|4----2-----|5-----5------|2----2---------|4-----2-------| 
--------0---4--|-----0-----|3-------------|-----0--------|------0--4----| 
---------------|-----------|--------------|--------------|--------------| 
_______________________________ Verse 3
D                D                                
5---------------|--------------:||                
7---------------|--------------:||                 
7---------------|--------------:||                
7---------------|--------------:||                
5-5-5-5-5-5-5-5-|5---5-5---5---:||               
----------------|--------------:||                  


%                              1-4___________________________
   G             Bm             F#m     A       D    A 
||:10-----------|7-------------|2-------0------|2----0-----:|| 
||:12-----------|7-------------|2-------2------|3----2-----:|| 
||:12-----------|7-------------|2-------2------|2----2-----:|| 
||:12-----------|9-------------|4-------2------|4----2-----:|| 
||:10-----------|--------------|--------0---4--|-----0-----:|| 
||:-------------|--------------|---------------|-----------:|| 
   Didn't we meet in the night in my sleep somewhere?

5. ___________________________________________________________
F#m     A        D              D              A
2------0--------|5-------------|---------------|0---------------||
2------2--------|7-------------|---------------|2---------------||
2------2--------|7-------------|---------------|2---------------||
4------2--------|7-------------|---------------|2---------------||
-------0---4----|5-5-5-5-5-5-5-|5-5-5-55-5-5-5-|0---------------||
----------------|--------------|---------------|----------------||