background
Alice Cooper Tablature: Devil's Food

Devil's Food

Words and music by Alice Cooper, Dick Wagner, Bob Ezrin
From the album Welcome To My Nightmare
Transcribed by DoteStudios

Keys
h = hammer-on
b = bend
r = release
\ = slide down
/ = slide up


E-------------------------------|
B-------------------------------|
G--------------9--12---5--7-7---| 2x
D-----0---2----9--12---5--7-7---|
A-0h2----------7--10---3--5-5---|
E-------3----0------------------|


“Get ready for the lady
She's gonna be a treat
Simmer slightly 'til ready
Make her soft too
Make her sweet”
E---------------------------------------------------------------------|
B---------------------------------------------------------------------|
G---------------9--12---5--7-7----------------9--12---5--7-7----------|
D-5-5-5--7-7-7--9--12---5--7-7------0---2-----9--12---5--7-7--5--7----|
A-5-5-5--7-7-7--7--10---3--5-5--0h2-----------7--10---3--5-5--5--7----|
E-3-3-3--5-5-5------------------------3----0------------------3--5----|

E---------------------------------------------------------------------|
B---------------------------------------------------------------------|
G-9--12---5--7-7----------------9--12---5--7-7--7--9------------------|
D-9--12---5--7-7------0---2-----9--12---5--7-7--7--9------------------|
A-7--10---3--5-5--0h2-----------7--10---3--5-5--5--7------------------|
E-----------------------3----0----------------------------------------|

“I kiss the tears off from your chest
I felt the poison fright that's in your breath
I knew your precious life and I know your death
I squeeze the love out of your soul
All the perfect love that's in your soul
You're just another spirit on parole
Devil's food (you are)
Devil's food (you are)
Devil's food (you are)”

E------------|
B-8-6--8-8-6-|
G-8-7--8-8-7-|
D------------|
A------------|
E------------|

E---------------------------------------------------------------------|
B---------------------------------------------------------------------|
G------------9-7------------------------------9-7b9r7b9r7-------------|
D--------7-9------5-5-5--7-7-7--2---------7-9-------------5-5-5--7-7-7|
A-7-9-10----------5-5-5--7-7-7--2--7-9-10-----------------5-5-5--7-7-7|
E-----------------3-3-3--5-5-5--0-------------------------3-3-3--5-5-5|

E---------------------------------|
B---------------------------------|
G---------------------------------|
D-7/9--9\7--7--7/9--9--9\7--7/9---|
A-5/7--7\5--5--5/7--7--7\5--5/7---|
E---------------------------------|


Vincent Price speech

E---------|
B---------|
G-5--7----|
D-5--7----|
A-3--5----|
E---------|

Then “The Black Widow” begins