background
Alice Cooper Tablature: Crazy Little Child

Crazy Little Child

Words and music by Michael Bruce and Alice Cooper
From the album Muscle Of Love (1973)
Transcribed by ???

This song was originally about an out-of-control teen, until Alice took
Michael Bruce's lyrics and changed them into a saga about Depression era
hoods.


The guitar work in this song is pretty much just background except for
this very nice little solo.


  Solo
E-|---------------------------------------------------------------------------|
B-|-------11--13--13b--<13>~~--<13>rb-11---13--11--13p11------11--13----------|
G-|--/12--------------------------------------------------12------------------|
D-|---------------------------------------------------------------------------|
A-|---------------------------------------------------------------------------|
E-|---------------------------------------------------------------------------|


E-|--------15--18--15---------------------------------------------------------|
B-|------15------------18--15-----------------------------------------11------|
G-|----15----------------------18--17--15----------------------10h12------12--|
D-|--17------------------------------------17--15--15h17~~--------------------|
A-|---------------------------------------------------------------------------|
E-|---------------------------------------------------------------------------|


E-|--------------------------------|------------------------------------------|
B-|--13b--13b~~rb-p11------13--11--|----------------11------------------------|
G-|--------------------12----------|-12--10--10h12------12--10----------------|
D-|--------------------------------|----------------------------12--11--10\8--|
A-|--------------------------------|------------------------------------------|
E-|--------------------------------|------------------------------------------|


E-|-------------------------------------------15--18--20/22-------------------|
B-|---------------------------11--13--15--18----------------------------------|
G-|-------------------10--12--------------------------------------------------|
D-|-----------10--12----------------------------------------------------------|
A-|--/10--13------------------------------------------------------------------|
E-|---------------------------------------------------------------------------|