background
Alice Cooper Tablature: Brutal Planet

Brutal Planet

Words and music by
From the album Brutal Planet (2000)
Transcription by Jhone5

Tuning: Standard (E A D G B E)

Tablature Legend
----------------
 h   - hammer-on
 p   - pull-off
[n]  - artificial harmoni
/\   - slide into or out of (from/to "nowhere")
/    - slide up (3/2)
\    - slide down (2\13)
T    - Tap (T3)


d=106
4/4

Intro                                   riff
E|----------------|--------------------|------------------------|
B|----------------|--------------------|10p9-9h10-9h10-9h10-9p8-|
G|----------------|--------------------|------------------------|
D|-8\2-2-2-2-2-2--|-8\2-2--2-2-2--2-2-2|------------------------|
A|-6\0-0-0-0-0-0--|-6\0-0--0-0-0--0-0-0|------------------------|
E|----------------|--------------------|------------------------|



|-------------------------------------||
|9h10-9h10-9h10-9h10p9h10p9h10p9/[14]-||
|-------------------------------------||
|-------------------------------------||
|-------------------------------------||
|-------------------------------------||

Verise
   C#5
E|---------------------------------||
B|---------------------------------||
G|-5-5-5-5-5-5-5-5-------5---5-----||
D|-5-5-5-5-5-5-5-5-------5---5-----||
A|-3-3-3-3-3-3-3-3-3-3-3-3h4p3-----||
E|---------------------------------||

 bridg
  E5  F#5  G5  C#5 E5 F#5
E|---|---|----|--|---|---||
B|---|---|----|--|---|---||
G|-9-|---|----|5/|-9-|---||
D|-9-|-4-|-5/\|5/|-9-|-4-||
A|-7-|-4-|-5/\|3/|-7-|-4-||
E|---|-2-|-3/\|--|---|-2-||

Chorus
  C#5 A5  F#5  E5
E|----|---|---|----||
B|----|---|---|----||
G|o-5-|---|---|-9-o||
D|--5-|-7-|-4-|-9--||
A|o-3-|-7-|-4-|-7-o||
E|----|-5-|-2-|----||

Bridge2
guitar 1 is the same as the Verise
so here is the guitar 2 part
E|----------------------------------------||
B|----------------------------------------||
G|16-16-16-16--18-18-18-18--13-13-13-13---||
D|----------------------------------------||
A|----------------------------------------||
E|----------------------------------------||

Solo
E|----------|----------|----------|
B|-18-19-15-|-18-19-15-|-15-14-13-|
G|----------|----------|----------|
D|----------|----------|----------|
A|----------|----------|----------|
E|----------|----------|----------|

-15h17h20-15h17h20-15h17/22-|-15h17h20-15h17h20-15h17/22-22-|
----------------------------|-------------------------------|
----------------------------|-------------------------------|
----------------------------|-------------------------------|
----------------------------|-------------------------------|
----------------------------|-------------------------------|


-T22p14p12-T22p14p12-T22p14p12-T19p14p12-||
-----------------------------------------||
-----------------------------------------||
-----------------------------------------||
-----------------------------------------||
-----------------------------------------||

|-T21p14p12 T20p14p12-T21p14p12-T20p14p12-T19p114p12-||
|----------------------------------------------------||
|----------------------------------------------------||
|----------------------------------------------------||
|----------------------------------------------------||
|----------------------------------------------------||


-T20p14p12-T19p14p12-T18p14p12-T19p14p12-T18p14p12-T17p14p12-T18p14p12-
-----------------------------------------------------------------------
-----------------------------------------------------------------------
-----------------------------------------------------------------------
-----------------------------------------------------------------------
-----------------------------------------------------------------------


-T17p14p12-T16p14p12-T15p14p12-||
-------------------------------||
-------------------------------||
-------------------------------||
-------------------------------||
-------------------------------||

How it go's
------------
Intro guitar1 play x2 guitar2 plays it x4
riff x2
Verise play x9
fiff x2
Verise play x8
Bridge
Chorus
Bridge2 guitar1&2 playe it x9 each
riff x2
Verise play x8
Bridge
Chorus
Bridge2 same as befor
Solo
Bridge
Chorus
Bridge2same as befor
Fiff x4