background
Alice Cooper Tablature: Along Came A Spider

Along Came A Spider

Words and music by Alice Cooper, Danny Saber, Greg Hampton
From the album Along Came A Spider (2008)
Transcribed by Criss Hart
Email: voyager2@bigpond.net.au

Notes; A guitar with a heavy vibrato effect thru out sets the tone for this eerie song. 
Lots of layered guitars in the background make for a big sound   . 

Intro / Verse         Bridge (2nd guitar use just E string single notes )
e|----0-----------------------------------------------------------------------|
B|----0-----------------------------------------------------------------------|
G|----9-----------------------------------------------------------------------|
D|----9-----------------------------------------------------------------------|
A|----7--------------------9-----8-----7-----5\--7/--5------------------------|
E|----0-----------------o--7--0--6--0--5-----3\--5/--3------------------------|

i
Chrous  Along Came a Spider rrr
e|---------------------------------------------------------------------------|
B|---------------------------------------------------------------------------|
G|--------------------------7---10-------------------------------------------|
D|--------------------------7---10---repeats over Chrous-and outro etc ------|
A|------2-------------------5---8--------------------------------------------|
E|------0--------------------------------------------------------------------|


 2.34 Sec  Ring thruout ( add slight variations ) 
e|---------------------------------------------------------------------------|
B|---------------------------------------------------------------------------|
G|---------------------------------------------------------------------------|
D|--------2-------2--3-2-------0--0-2-0---0-( X 4)----000000000--D Build up-|
A|------3-------3--3-----3\1--0---------3------------------------------------|
E|---------------------------------------------------------------------------|


 3.42  
e|---------------------------------------------------------------------------|
B|---------------------------------12----15----------------------------------|
G|-----7\9--9/7--9-------12\14/12--------------------------------------------|
D|---------------------------------------------------------------------------|
A|---------------------------------------------------------------------------|
E|---------------------------------------------------------------------------|

I know it looks like i have nt tabbed the entire  tune but its all here  
 
 

| /  slide up
| \  slide down
| h  hammer-on
| p  pull-off
| ~  vibrato
| +  harmonic
| x  Mute note