background
Alice Cooper Tablature: Salvation

Salvation

Words and music by Alice Cooper, Danny Saber, Greg Hampton, Bernard Fowler
From the album Along Came A Spider (2008)
Transcribed by Criss Hart
Email: voyager2@bigpond.net.au

Notes   A great melodic solo on this great track . lots of guitar and vocal layers. A very cool song .




 Verse  (  A , G ,D/f'', F )   Bridge ( E , G )  Clean Guitars 


  

   Any chance  Salvation X3      (let Ring )  varaitons thru out 
e|---------------------------------------------------------------------------|
B|---------------------------------------------------------------------------|
G|--5-----------------------------2--3-2-------------------------------------|
D|--5----------5------------------2------2-----------------------------------|
A|--3----------5------------------0------------------------------------------|
E|-------------3-------------------------------------------------------------|


 2.28    
e|---------------------------------------------------------------------------|
B|---------------------------------------------------------------------------|
G|---------------------------------------------------------------------------|
D|---------------------------------------------------------------------------|
A|--5-X8---4-x8--3-x8--2-x6--2-0------------------3-X8------------2----------|
E|-------------------------------3-2-1-X8--3-X8----------4--3--5-------------|


  Solo Lick 1                      Lick 1                     Lick 1
e|---------------------------------------------------------------------------|
B|-hold bend-----/8-----8-7---------------------/8--------7------------------|
G|---4b6-4r4p2--------------9--6----------------------7-9--------------------|
D|---------------------------------------------------------------------------|
A|---------------------------------------------------------------------------|
E|---------------------------------------------------------------------------|


                        Lick 1    
e|------------------------------------10p7---7-------------------------------|
B|---/8-----8-7-----------------/8---------10--10p7-10-7---7---10-7---7------|
G|--------------9-7-6-----------------------------------------9-----9---9----|
D|------------------------------------------------------------------------10/11
A|---------------------------------------------------------------------------|
E|---------------------------------------------------------------------------|

 3.17 Pitch shifter ?

e|---------------------------------------------------------------------------|
B|-------------8-8b9---------------------------------------------------------|
G|--9-10-11-12---------------------------------------------------------------|
D|---------------------------------------------------------------------------|
A|---------------------------------------------------------------------------|
E|---------------------------------------------------------------------------|

Not sure about the last lick at 3.17 as i dont have a pith shifter . 

 
| /  slide up
| \  slide down
| h  hammer-on
| p  pull-off
| ~  vibrato
| +  harmonic
| x  Mute note