background
Alice Cooper Bass Tablature: Woman Of Mass Distraction

Woman Of Mass Distraction

Words and music by
From the album Dirty Diamonds (2005)
Transcribed by Sind (rocklvson@yahoo.com)

This is an awesome song to start out Alice's newest album, Dirty Diamonds.


Key:
x = times a number
* = let it ring


Intro/Chorus
G:------------------------------|
D:------------------------------|
A:------------------------------|
E:2xa whole hell of alotta times|


Another part
G:---------------------------------------|
D:---------------0-1-2-2-----------------|
A:----0-1-2--2-2-------------0-1-2--2-0--|
E:2-2--------------------2-2------------2|


Verse
G:------------4---------------------------------|
D:4x6-2----------------------------------0-1-2-2|
A:------4-2-2---2-1-0---------0-1-2--2-2--------|
E:--------------------4-3-2-2-------------------|


Pre-Chorus
G:--------------------------------------------------------|
D:--------------------------4*----------------------------|
A:5-5-5-5---------5-5-5-5------3-4-5-5-5-5---------2x8-5x8|
E:--------5-5-5-5---------2----------------5-5-5-5--------|


Solo
G:----------------------|---|-----|----------|
D:-------------------2x8|---|-----|----------|
A:2x16------2x16-5x8----|---|-----|----------|
E:-----2x16-------------|2-2|2-2-2|2-2-2-2-2*|


End
G:---------------|
D:---------------|
A:2*--2*--2*-----|
E:-------------2*|


That's it. This is a totally kickass song, so learn it well 
and add in some variations. Just firgure out the order and 
you got it all. Any questions or comments, e-mail me at 
rocklvson@yahoo.com