background
Alice Cooper Bass Tablature: Wicked Young Man

Wicked Young Man

Words and music by
From the album Brutal Planet (2000)
Transcribed by ???

G||------|------|------|------|--------------------------|
D||------|------|------|------|--------------------------|
A||------|------|------|------|--------------------------|
D||------|------|------|------|--0--0--3--5--6--6--5--3--|


                                                      
--------------------------|--------------------------|
--------------------------|--------------------------|
--------------------------|--------------------------|
--0--0--3--5--6--6--5--3--|--0--0--3--5--6--6--5--3--|


                                                      
--------------------------|--------------------------|
--------------------------|--------------------------|
--------------------------|--------------------------|
--6--6--6--5--5--5--3--3--|--0--0--3--5--6--6--5--3--|


                                                      
--------------------------|--------------------------|
--------------------------|--------------------------|
--------------------------|--------------------------|
--0--0--3--5--6--6--5--3--|--0--0--3--5--6--6--5--3--|


                                                                            
--------------------------|------|------|------|------|------|------|------|
--------------------------|------|------|------|------|------|------|------|
--------------------------|------|------|------|------|------|------|------|
--6--6--6--5--5--5--3--3--|------|------|------|------|------|------|------|


                                                             
------|--------------------------|--------------------------|
------|--------------------------|--------------------------|
------|--------------------------|--------------------------|
------|--0--0--3--5--6--6--5--3--|--0--0--3--5--6--6--5--3--|


                                                                           
--------------------------|--------------------------|------|------|------|
--------------------------|--------------------------|------|------|------|
--------------------------|--------------------------|------|------|------|
--0--0--3--5--6--6--5--3--|--6--6--6--5--5--5--3--3--|------|------|------|


                                                              
------|------|------|------|------|--------------------------|
------|------|------|------|------|--------------------------|
------|------|------|------|------|--5--5--5--5--5--5--5--5--|
------|------|------|------|------|--------------------------|


                                                      
--------------------------|--------------------------|
--------------------------|--------------------------|
-----------------------3--|--5--5--5--5--5--5--5--5--|
--3--3--3--3--3--5--3-----|--------------------------|


                                                      
--------------------------|--------------------------|
--------------------------|--------------------------|
-----------------------3--|--5--5--5--5--5--5--5--5--|
--3--3--3--3--3--5--3-----|--------------------------|


                                                      
--------------------------|--------------------------|
--------------------------|--------------------------|
-----------------------3--|--5--5--5--5--5--5--5--5--|
--3--3--3--3--3--5--3-----|--------------------------|


                                                      
--------------------------|--------------------------|
--------------------------|--------------------------|
-----------------------3--|--------------------------|
--3--3--3--3--3--5--3-----|--0--0--3--5--6--6--5--3--|


                                                      
--------------------------|--------------------------|
--------------------------|--------------------------|
--------------------------|--------------------------|
--0--0--3--5--6--6--5--3--|--0--0--3--5--6--6--5--3--|


                                                                            
--------------------------|------|------|------|------|------|------|------|
--------------------------|------|------|------|------|------|------|------|
--------------------------|------|------|------|------|------|------|------|
--6--6--6--5--5--5--3--3--|------|------|------|------|------|------|------|


                                                              
------|------|------|------|------|--------------------------|
------|------|------|------|------|--------------------------|
------|------|------|------|------|--5--5--5--5--5--5--5--5--|
------|------|------|------|------|--------------------------|


                                                      
--------------------------|--------------------------|
--------------------------|--------------------------|
-----------------------3--|--5--5--5--5--5--5--5--5--|
--3--3--3--3--3--5--3-----|--------------------------|


                                                      
--------------------------|--------------------------|
--------------------------|--------------------------|
-----------------------3--|--5--5--5--5--5--5--5--5--|
--3--3--3--3--3--5--3-----|--------------------------|


                                                      
--------------------------|--------------------------|
--------------------------|--------------------------|
-----------------------3--|--5--5--5--5--5--5--5--5--|
--3--3--3--3--3--5--3-----|--------------------------|


                                                      
--------------------------|--------------------------|
--------------------------|--------------------------|
-----------------------3--|--------------------------|
--3--3--3--3--3--5--3-----|--0--0--3--0--0--0--3--0--|


                                                      
--------------------------|--------------------------|
--------------------------|--------------------------|
--------------------------|--------------------------|
--0--0--3--0--0--0--3--0--|--0--0--3--0--0--0--3--0--|


                                                      
--------------------------|--------------------------|
--------------------------|--------------------------|
--------------------------|--------------------------|
--0--0--3--0--0--0--3--0--|--0--0--3--0--0--0--3--0--|


                                                      
--------------------------|--------------------------|
--------------------------|--------------------------|
--------------------------|--------------------------|
--0--0--3--0--0--0--3--0--|--0--0--3--0--0--0--3--0--|


                                                      
--------------------------|--------------------------|
--------------------------|--------------------------|
--------------------------|--------------------------|
--0--0--3--0--0--0--3--0--|--0--0--3--0--0--0--3--0--|


                                                      
--------------------------|--------------------------|
--------------------------|--------------------------|
--------------------------|--------------------------|
--0--0--3--0--0--0--3--0--|--0--0--3--0--0--0--3--0--|


                                                                          
--------------------------|----|----|----|----|--------------------------|
--------------------------|----|----|----|----|--------------------------|
--------------------------|----|----|----|----|--5--5--5--5--5--5--5--5--|
--0--0--3--0--0--0--3--0--|----|----|----|----|--------------------------|


                                                      
--------------------------|--------------------------|
--------------------------|--------------------------|
-----------------------3--|--5--5--5--5--5--5--5--5--|
--3--3--3--3--3--5--3-----|--------------------------|


                                                      
--------------------------|--------------------------|
--------------------------|--------------------------|
-----------------------3--|--5--5--5--5--5--5--5--5--|
--3--3--3--3--3--5--3-----|--------------------------|


                                                      
--------------------------|--------------------------|
--------------------------|--------------------------|
-----------------------3--|--5--5--5--5--5--5--5--5--|
--3--3--3--3--3--5--3-----|--------------------------|


                                                      
--------------------------|--------------------------|
--------------------------|--------------------------|
-----------------------3--|--5--5--5--5--5--5--5--5--|
--3--3--3--3--3--5--3-----|--------------------------|


                                                      
--------------------------|--------------------------|
--------------------------|--------------------------|
-----------------------3--|--5--5--5--5--5--5--5--5--|
--3--3--3--3--3--5--3-----|--------------------------|


                                                      
--------------------------|--------------------------|
--------------------------|--------------------------|
-----------------------3--|--5--5--5--5--5--5--5--5--|
--3--3--3--3--3--5--3-----|--------------------------|


                                                      
--------------------------|--------------------------|
--------------------------|--------------------------|
-----------------------3--|--5--5--5--5--5--5--5--5--|
--3--3--3--3--3--5--3-----|--------------------------|


                                                      
--------------------------|--------------------------|
--------------------------|--------------------------|
-----------------------3--|--------------------------|
--3--3--3--3--3--5--3-----|--0--0--3--5--6--6--5--3--|


                                                      
--------------------------|--------------------------|
--------------------------|--------------------------|
--------------------------|--------------------------|
--0--0--3--5--6--6--5--3--|--0--0--3--5--6--6--5--3--|


                                                      
--------------------------|--------------------------|
--------------------------|--------------------------|
--------------------------|--------------------------|
--6--6--6--5--5--5--3--3--|--0--0--3--5--6--6--5--3--|


                                                      
--------------------------|--------------------------|
--------------------------|--------------------------|
--------------------------|--------------------------|
--0--0--3--5--6--6--5--3--|--0--0--3--5--6--6--5--3--|


                                                                  
--------------------------|-------------------|------------------|
--------------------------|-------------------|------------------|
--------------------------|-------------------|------------------|
--6--6--6--5--5--5--3--3--|--0----------------|------------------|


                                                          
------------------|------------------|------------------||
------------------|------------------|------------------||
------------------|------------------|------------------||
------------------|------------------|------------------||