background
Alice Cooper Bass Tablature: Welcome To My Nightmare

Welcome To My Nightmare

Words and music by Alice Cooper, Dick Wagner and Bob Ezrin
From the album Welcome To My Nightmare (1975)
Transcribed by Derrick Morris and Kimberly Thomas

Standard tuning E A D G



G----------------|---------9---7--|---------7--6--
D----------------|-----7----------|-----7---------
A---7--------7---|--7-------------|--7------------
E----------------|----------------|---------------


intro
G--------------------------------|--------------
D-------------5------------------|---------5-----
A--7--5-7-------7--5-------------|------5-----7--
E---------------------7---5-6-7--|--7------------
intro cont.

G-----------------------------------------|-----------------------------
D-----------------------------------------|----------------------5------
A------7-5-7---7--5--7--7-------5---------|-------------------5------7--
E--0-----------------------5-7-----7------|--7-7-7-7-7-7---7------------
verses                                             fill

I tabbed this off of the Muppet Show version of this song, great show 
Starring Alice Cooper!!! I looked for this tab on the net forever and 
never found it, so now, here it is, enjoy