background
Alice Cooper Bass Tablature: Spirits Rebellious

Spirits Rebellious

Words and music by
From the album The Eyes Of Alice Cooper (2003)
Transcribed by Sind (rocklvson@yahoo.com)

This is one of my favorite songs in general. I'm pretty sure this is correct.


Key:

* = let it ring
x = times a number
b = bend


Intro
G:------------------|-------------|
D:------------------|-------------|
A:---------------3-3|-------------|
E:2-2--5-5--0-0-----|-2-2--5-5--0*|


Verse
G:--------------------------|
D:--------------------------|
A:----3b---3b---0-0---0---3b|
E:2-2----2----2-----2---2---|


G:---------------|---------------|---------------|----|
D:---------------|---------------|---------------|----|
A:---------------|---------------|2x4-5x4-4x4-3x4|----|
E:2x4-5x4-4x4-3x4|2x4-5x4-4x4-3x4|---------------|4x64|


Chorus
G:---------------|------------|
D:---------------|------------|
A:0x8-2x8-5x8-2x8|0x8-2x8-5x16|
E:---------------|------------|


Solo is the intro


That's it. It's an easy song when you get the hang of it. You can figure out 
the order, etc...by your-self. Any questions or comments, e-mail me at 
rocklvson@yahoo.com