background
Alice Cooper Bass Tablature: Love's A Loaded Gun

Love's A Loaded Gun

Words and music by
From the album Hey Stoopid (1991)
Transcribed by ???

Standard Tuning


(Intro)
G:------------------------------|
D:------------------------------|
A:------3--3---3--1--------3--3-|
E:3--1---------------3--1-------|


(Guitar)

G:---------------      ---------------|
D:---------------  x3  ---------------|
A:------3--3--3-1      1--------------|
E:3--1-----------      -----1---3-----|


G:------------------------|
D:------------------------|
A:1(8)---3(8)---1(8)---3~-|
E:------------------------|


(Chorus)
G:------------------------------|
D:------------------------------|  x2
A:---3--1-------3--1--3---------|
E:3--------1--3----------1--3---|


G:--------------------------------|
D:--------------------------------|  x2
A:------3--3---3--1--------3--3---|
E:3--1---------------3--1---------|


G:------------------------|
D:------------------------|
A:1(8)---3(8)---1(8)---3~-|
E:------------------------|


Chorus x2


Intro x2

G:---------------      ---------------|
D:---------------  x3  ---------------|
A:------3--3--3-1      1--------------|
E:3--1-----------      -----1---3-----|


G:------------------------|
D:------------------------|
A:1(8)---3(8)---1(8)---3~-|
E:------------------------|


(Chorus)
G:------------------------------|
D:------------------------------|  x4
A:---3--1-------3--1--3---------|
E:3--------1--3----------1--3---|


(Outro)
G:-----------------|
D:-----------------|
A:----------3----3-|
E:3----1-----------|