background
Alice Cooper Bass Tablature: Lost In America

Lost In America

Words and music by
From the album The Last Temptation (1994)
Transcribed by ???

  Intro (twice)

G|------------------------------------------------------------------------|
D|------------------------------------------------------------------------|
A|-----------------------3------------------------------------------------|
E|-3-5--5-5--3-5--5-5-5-----3-5--5-5--3-5--5-5-5--------------------------|


  Verse                                          End Verse
G|----------------------------------------------|-------------------------|
D|----------------------------------------------|-------------------------|
A|----------------------------------------------|-------------------3-----|
E|-5--5-5-5-5-5-5-5-5-5-5-5-5-5-5-5-5-5-5-5-5-5-|-3-5--5-5--3-5--5--------|


  Pre-chorus
G|---------------------------------------------------------7--------------|
D|---------------------------------------------------------7--------------|
A|-0--3--5-3-0--0--3--5-3-0--5--------------------------------------------|
E|------------------------------------------------------------------------|
  
  Chorus
G|------------------------------------------------------------------------|
D|------------------------------------------------------------------------|
A|------------------------------------------------------------------------|
E|-5-5-5-5-4-3--5-5-5-5-4-3--5-5-5-5-4-3--5-5-5-5-4-3--5-5-5-5-4-3--------|
  
  Bridge
G|------------------------------------------------------------------------|
D|------------------------------------------------------------------------|
A|------------------------------------------------------------------------|
E|-5-5-5-5-5-5-5-5-5-5-5-5-5-5-5-5-5-5-5-5-5-5-5-5-5-5-5-5-5-5-5-5-5-5-5--|
 
Play chorus riff while solo.


Song-Structure

Intro x 2
Verse x 4 
Pre-chorus x 1
Chorus x 1
Verse x 4
Pre-chorus x 1
Chorus x 2
Bridge x 1
Chorus while guitar solo x 2
Verse x 4
Pre-chorus x 1
Chorus to the end. 


Every verse ends with the ?the end verse? part except the fourth, which 
ends with the pre-chorus.