background
Alice Cooper Bass Tablature: Is It My Body?

Is It My Body?

Words and music by Michael Bruce and Alice Cooper
From the album Love It To Death (1971)
Transcribed by Achilles

  intro/verse riff                   "you better tell me"
G|----------------------------|-----------------------------------------------|
D|------------------------5---|-----------------------------------0234--4-2-0-|
A|--2234420------2234420------|223------------0000000022-3-4-5-234------------|
E|---------2-2----------2-----|---430122222222----------------2---------------|

  "..who I really am"   "what does it take.."
G|-------------------|--------------------------------------------|
D|-------------------|5\------------------------------------------|
A|2/3-2/3-2/3-2/3----|----------02-2020---------02-2020-----simile|
E|-------------------|---2-20202-------202-20202-------202--------|


  solo (x4)
G|-----------3-------|
D|5-5355-30-----0345-|
A|---------55-5------|
E|-------------------|