background
Alice Cooper Bass Tablature: Gimme

Gimme

Words and music by
From the album Brutal Planet (2000)
Transcribed by Cind (Rocklvson)

This is a really awesome song off of one of my favorite Cooper albums...
Brutal Planet.


Key:
x = times a number
* = let it ring


Intro/Chorus
G:------|-----------------------|
D:------|-----------------------|
A:------|-----------------------|
Db:4-3-2|0-0--0-0--0-0-0-0-2-0-3|


Verse
G:------------------|
D:------------------|
A:4-3-2-------------|
Db:-----0-0-0--0-0-0|

"I'm on your side..."

G:---------------------------|
D:---------------------------|
A:---------------------------|
Db:3x8-5x8-7-6-5-3-3-5-7-6-5*|

"Don't you..."
G:-------------------------------|
D:-------------------------------|
A:-----------0-0*-----------0-0-2|
Db:0-0-0-0-0------5-5-5-5-5------|

"Fame and money..."
G:--------------------------------|
D:--------------------------------|
A:--------------------------------|
Db:7-8-7-8-7-8-7-8-7-8-7-8-7-5-3-2|

That's it. Parts are there, figure out the order yourself. It's simple. 
Play it with some speed at some parts. Any questions or comments, e-mail 
me at rocklvson@yahoo.com