background
Alice Cooper Bass Tablature: Feed My Frankenstein

Feed My Frankenstein

Words and music by
From the album Hey Stoopid (1991)
Transcribed by me_done_eggy@hotmail.com

intro/chorus/through guitar solo part 3

G---------------------------------------------------|
D---------------------------------------------------|
A--------------------------2-0-2--------------------|
E--0--3--5--3--0---0-0-3----------0--3--5--3--0-----|


verse/through guitar solo part 1

G----------------------------------------|
D----------------------------------------|
A----------------------------------------|
E--0-0--0-000----------------------------|


Pre Chorus/guitar solo part 2

G--------------|
D--------------|
A-------5^-----|
E---0-0--------|


G-------------------------------------|
D-------------------------------------|
A-------5^-------5^-----5^------------|
E---0-0----0-00-----0-0---------------|