background
Alice Cooper Bass Tablature: Brutal Planet

Brutal Planet

Words and music by
From the album Brutal Planet (2000)
Transcribed by Jhon5

tuing is C# A D G
song played at 106 bpm


Intro
|----------||
|----------|| 8X
|-8\-------||
|----0-0-0-||


Verse
|----------------||
|----------------||
|----------------||9 bars
|-0-0-0-0-0-0-0--||


Riff
|--------------||
|--------------||4x
|--8\----------||
|----0-0-0-----||


Bridge
|o--------------|--------------|--------------|----------------o||
|---------------|--------------|--------------|-----------------||
|---------------|--------------|--------------|-----------------||
|o-3-3-3-3--3-3-|-6-6-6--6-6-6-|-6-6-6--6-6-6-|-7\0-0--0-0-0-0-o||

|---------------|--------------||
|---------------|--------------||
|---------------|--------------||
|-3-3-3-3---3-3-|-6-6-6--6-6-6-||


Chorus
|------------|-----------|-----------|-------------||
|o-----------|-----------|-----------|------------o||
|o-3-3-3-3-5-|-0-0-0-0-3-|---------5-|-7-7-7/9\---o||
|------------|-----------|-6-6-6-6---|-------------||


Bridge2
|-----------------|----------------|-----------------|-------------------||
|-----------------|----------------|-----------------|-------------------||
|-----------------|----------------|-----------------|-------------------||
|-3-3-5-3-5-3-5-7-|-3-3-5-3-5-3-2--|-3-3-5-3-5-3-5-7-|-3-3-5-3-5-3-3-2-2-||


|-----------------|----------------|-----------------|----------------||
|-----------------|----------------|-----------------|----------------||
|-----------------|----------------|-----------------|----------------||
|-3-3-5-3-5-3-5-7-|-3-3-5-3-5-3-2--|-3-3-5-3-5-3-5-7-|-3-3-5-3-5-7-7--||


Repeat all but intro

solo:

repeat bridge chorus bridge2

Riff 8x