background
Alice Cooper Bass Tablature: The Black Widow

The Black Widow

Words and music by Alice Cooper, Dick Wagner and Bob Ezrin
From the album Welcome To My Nightmare (1975)
Transcribed by Max (agmnj5lls@punkmusic.com)

|------------|
|-----5------|
|-7777--5-7--|
|------------|


|-----------------------------|----------------|
|-----------------------------|----------------|
|-77-7-77-7-77-7-77-7--7-8~~7-|-77-7-77-7-77-7-|
|-----------------------------|----------------|


|--7-9-7-7-9~~|
|-9-----9-----|
|-------------|
|-------------|


|-----------------------------|----------------|
|-----------------------------|----------------|
|-77-7-77-7-77-7-77-7--7-8~~7-|-77-7-77-7-77-7-|
|-----------------------------|----------------|


|--7-9-7-7-9~~|
|-9-----9-----|
|-------------|
|-------------|


Verse 1  Riff 4
|-----------------------------------------------------------|
|---------------------------------------------------------7-|x2
|-77-7-77-7-77-7-77-7-8~~7-77-7-77-7-77-7-10~~7-77-7-77-7---|
|-----------------------------------------------------------|


Riff 5
|------------------------------------------|
|------------------------------------------|
|----------------------------7-7-7-7-7-7-7-|
|--7-7-7-7-7-7-7\9-9-9-9-9-9---------------|
Love me yes we love me, Love him yes we love him


Riff 6
|-----------------------------------|
|-----------------------------------|
|-7///14-15-16--15-16-15-16-15-16\\-|
|-----------------------------------|
Love me yes we love him,


Riff 1
|------------|
|-----5------|
|-7777--5-7--|
|------------|


Riff 2
|-----------------------------|----------------|
|-----------------------------|----------------|
|-77-7-77-7-77-7-77-7--7-8~~7-|-77-7-77-7-77-7-|
|-----------------------------|----------------|


Riff 3
|--7-9-7-7-9~~|
|-9-----9-----|
|-------------|
|-------------|


Riff 2
|-----------------------------|----------------|
|-----------------------------|----------------|
|-77-7-77-7-77-7-77-7--7-8~~7-|-77-7-77-7-77-7-|
|-----------------------------|----------------|


Riff 3
|--7-9-7-7-9~~|
|-9-----9-----|
|-------------|
|-------------|


Riff 1
Riff 2
Riff 3
Riff 2
Riff 3
Riff 4 x2


Riff 7
|---------------|
|---------------|x4
|--2/////16-16--|
|---------------|


Riff 8  End
|--------------------|
|--------------------|
|--777---------------|
|------7-8---888-5-6-|